  0
SECTION
  2
HEADER
  9
$ACADVER
  1
AC1024
  9
$ACADMAINTVER
 70
     6
  9
$DWGCODEPAGE
  3
ANSI_1252
  9
$INSBASE
 10
0.0
 20
0.0
 30
0.0
  9
$EXTMIN
 10
1.000000000000000E+20
 20
1.000000000000000E+20
 30
1.000000000000000E+20
  9
$EXTMAX
 10
-1.000000000000000E+20
 20
-1.000000000000000E+20
 30
-1.000000000000000E+20
  9
$LIMMIN
 10
0.0
 20
0.0
  9
$LIMMAX
 10
12.0
 20
9.0
  9
$ORTHOMODE
 70
     0
  9
$REGENMODE
 70
     1
  9
$FILLMODE
 70
     1
  9
$QTEXTMODE
 70
     0
  9
$MIRRTEXT
 70
     1
  9
$LTSCALE
 40
1.0
  9
$ATTMODE
 70
     1
  9
$TEXTSIZE
 40
0.2
  9
$TRACEWID
 40
0.05
  9
$TEXTSTYLE
  7
Standard
  9
$CLAYER
  8
0
  9
$CELTYPE
  6
ByLayer
  9
$CECOLOR
 62
   256
  9
$CELTSCALE
 40
1.0
  9
$DISPSILH
 70
     0
  9
$DIMSCALE
 40
1.0
  9
$DIMASZ
 40
0.18
  9
$DIMEXO
 40
0.0625
  9
$DIMDLI
 40
0.38
  9
$DIMRND
 40
0.0
  9
$DIMDLE
 40
0.0
  9
$DIMEXE
 40
0.18
  9
$DIMTP
 40
0.0
  9
$DIMTM
 40
0.0
  9
$DIMTXT
 40
0.18
  9
$DIMCEN
 40
0.09
  9
$DIMTSZ
 40
0.0
  9
$DIMTOL
 70
     0
  9
$DIMLIM
 70
     0
  9
$DIMTIH
 70
     1
  9
$DIMTOH
 70
     1
  9
$DIMSE1
 70
     0
  9
$DIMSE2
 70
     0
  9
$DIMTAD
 70
     0
  9
$DIMZIN
 70
     0
  9
$DIMBLK
  1

  9
$DIMASO
 70
     1
  9
$DIMSHO
 70
     1
  9
$DIMPOST
  1

  9
$DIMAPOST
  1

  9
$DIMALT
 70
     0
  9
$DIMALTD
 70
     2
  9
$DIMALTF
 40
25.4
  9
$DIMLFAC
 40
1.0
  9
$DIMTOFL
 70
     0
  9
$DIMTVP
 40
0.0
  9
$DIMTIX
 70
     0
  9
$DIMSOXD
 70
     0
  9
$DIMSAH
 70
     0
  9
$DIMBLK1
  1

  9
$DIMBLK2
  1

  9
$DIMSTYLE
  2
Standard
  9
$DIMCLRD
 70
     0
  9
$DIMCLRE
 70
     0
  9
$DIMCLRT
 70
     0
  9
$DIMTFAC
 40
1.0
  9
$DIMGAP
 40
0.09
  9
$DIMJUST
 70
     0
  9
$DIMSD1
 70
     0
  9
$DIMSD2
 70
     0
  9
$DIMTOLJ
 70
     1
  9
$DIMTZIN
 70
     0
  9
$DIMALTZ
 70
     0
  9
$DIMALTTZ
 70
     0
  9
$DIMUPT
 70
     0
  9
$DIMDEC
 70
     4
  9
$DIMTDEC
 70
     4
  9
$DIMALTU
 70
     2
  9
$DIMALTTD
 70
     2
  9
$DIMTXSTY
  7
Standard
  9
$DIMAUNIT
 70
     0
  9
$DIMADEC
 70
     0
  9
$DIMALTRND
 40
0.0
  9
$DIMAZIN
 70
     0
  9
$DIMDSEP
 70
    46
  9
$DIMATFIT
 70
     3
  9
$DIMFRAC
 70
     0
  9
$DIMLDRBLK
  1

  9
$DIMLUNIT
 70
     2
  9
$DIMLWD
 70
    -2
  9
$DIMLWE
 70
    -2
  9
$DIMTMOVE
 70
     0
  9
$DIMFXL
 40
1.0
  9
$DIMFXLON
 70
     0
  9
$DIMJOGANG
 40
0.7853981633974483
  9
$DIMTFILL
 70
     0
  9
$DIMTFILLCLR
 70
     0
  9
$DIMARCSYM
 70
     0
  9
$DIMLTYPE
  6

  9
$DIMLTEX1
  6

  9
$DIMLTEX2
  6

  9
$DIMTXTDIRECTION
 70
     0
  9
$LUNITS
 70
     2
  9
$LUPREC
 70
     4
  9
$SKETCHINC
 40
0.1
  9
$FILLETRAD
 40
0.5
  9
$AUNITS
 70
     0
  9
$AUPREC
 70
     0
  9
$MENU
  1
.
  9
$ELEVATION
 40
0.0
  9
$PELEVATION
 40
0.0
  9
$THICKNESS
 40
0.0
  9
$LIMCHECK
 70
     0
  9
$CHAMFERA
 40
0.5
  9
$CHAMFERB
 40
0.5
  9
$CHAMFERC
 40
1.0
  9
$CHAMFERD
 40
0.0
  9
$SKPOLY
 70
     0
  9
$TDCREATE
 40
2458406.477507245
  9
$TDUCREATE
 40
2458406.019173912
  9
$TDUPDATE
 40
2458406.477507361
  9
$TDUUPDATE
 40
2458406.019174028
  9
$TDINDWG
 40
0.0000000116
  9
$TDUSRTIMER
 40
0.0000000116
  9
$USRTIMER
 70
     1
  9
$ANGBASE
 50
0.0
  9
$ANGDIR
 70
     0
  9
$PDMODE
 70
     0
  9
$PDSIZE
 40
0.0
  9
$PLINEWID
 40
0.0
  9
$SPLFRAME
 70
     0
  9
$SPLINETYPE
 70
     6
  9
$SPLINESEGS
 70
     8
  9
$HANDSEED
  5
AA
  9
$SURFTAB1
 70
     6
  9
$SURFTAB2
 70
     6
  9
$SURFTYPE
 70
     6
  9
$SURFU
 70
     6
  9
$SURFV
 70
     6
  9
$UCSBASE
  2

  9
$UCSNAME
  2

  9
$UCSORG
 10
0.0
 20
0.0
 30
0.0
  9
$UCSXDIR
 10
1.0
 20
0.0
 30
0.0
  9
$UCSYDIR
 10
0.0
 20
1.0
 30
0.0
  9
$UCSORTHOREF
  2

  9
$UCSORTHOVIEW
 70
     0
  9
$UCSORGTOP
 10
0.0
 20
0.0
 30
0.0
  9
$UCSORGBOTTOM
 10
0.0
 20
0.0
 30
0.0
  9
$UCSORGLEFT
 10
0.0
 20
0.0
 30
0.0
  9
$UCSORGRIGHT
 10
0.0
 20
0.0
 30
0.0
  9
$UCSORGFRONT
 10
0.0
 20
0.0
 30
0.0
  9
$UCSORGBACK
 10
0.0
 20
0.0
 30
0.0
  9
$PUCSBASE
  2

  9
$PUCSNAME
  2

  9
$PUCSORG
 10
0.0
 20
0.0
 30
0.0
  9
$PUCSXDIR
 10
1.0
 20
0.0
 30
0.0
  9
$PUCSYDIR
 10
0.0
 20
1.0
 30
0.0
  9
$PUCSORTHOREF
  2

  9
$PUCSORTHOVIEW
 70
     0
  9
$PUCSORGTOP
 10
0.0
 20
0.0
 30
0.0
  9
$PUCSORGBOTTOM
 10
0.0
 20
0.0
 30
0.0
  9
$PUCSORGLEFT
 10
0.0
 20
0.0
 30
0.0
  9
$PUCSORGRIGHT
 10
0.0
 20
0.0
 30
0.0
  9
$PUCSORGFRONT
 10
0.0
 20
0.0
 30
0.0
  9
$PUCSORGBACK
 10
0.0
 20
0.0
 30
0.0
  9
$USERI1
 70
     0
  9
$USERI2
 70
     0
  9
$USERI3
 70
     0
  9
$USERI4
 70
     0
  9
$USERI5
 70
     0
  9
$USERR1
 40
0.0
  9
$USERR2
 40
0.0
  9
$USERR3
 40
0.0
  9
$USERR4
 40
0.0
  9
$USERR5
 40
0.0
  9
$WORLDVIEW
 70
     1
  9
$SHADEDGE
 70
     3
  9
$SHADEDIF
 70
    70
  9
$TILEMODE
 70
     1
  9
$MAXACTVP
 70
    64
  9
$PINSBASE
 10
0.0
 20
0.0
 30
0.0
  9
$PLIMCHECK
 70
     0
  9
$PEXTMIN
 10
1.000000000000000E+20
 20
1.000000000000000E+20
 30
1.000000000000000E+20
  9
$PEXTMAX
 10
-1.000000000000000E+20
 20
-1.000000000000000E+20
 30
-1.000000000000000E+20
  9
$PLIMMIN
 10
0.0
 20
0.0
  9
$PLIMMAX
 10
12.0
 20
9.0
  9
$UNITMODE
 70
     0
  9
$VISRETAIN
 70
     1
  9
$PLINEGEN
 70
     0
  9
$PSLTSCALE
 70
     1
  9
$TREEDEPTH
 70
  3020
  9
$CMLSTYLE
  2
Standard
  9
$CMLJUST
 70
     0
  9
$CMLSCALE
 40
1.0
  9
$PROXYGRAPHICS
 70
     1
  9
$MEASUREMENT
 70
     0
  9
$CELWEIGHT
370
    -1
  9
$ENDCAPS
280
     0
  9
$JOINSTYLE
280
     0
  9
$LWDISPLAY
290
     1
  9
$INSUNITS
 70
     1
  9
$HYPERLINKBASE
  1

  9
$STYLESHEET
  1

  9
$XEDIT
290
     1
  9
$CEPSNTYPE
380
     0
  9
$PSTYLEMODE
290
     1
  9
$FINGERPRINTGUID
  2
{526F6F1C-3DE7-4F98-B675-427D2C8B4A08}
  9
$VERSIONGUID
  2
{FAEB1C32-E019-11D5-929B-00C0DF256EC4}
  9
$EXTNAMES
290
     1
  9
$PSVPSCALE
 40
0.0
  9
$OLESTARTUP
290
     0
  9
$SORTENTS
280
   127
  9
$INDEXCTL
280
     0
  9
$HIDETEXT
280
     1
  9
$XCLIPFRAME
280
     2
  9
$HALOGAP
280
     0
  9
$OBSCOLOR
 70
   257
  9
$OBSLTYPE
280
     0
  9
$INTERSECTIONDISPLAY
280
     0
  9
$INTERSECTIONCOLOR
 70
   257
  9
$DIMASSOC
280
     2
  9
$PROJECTNAME
  1

  9
$CAMERADISPLAY
290
     0
  9
$LENSLENGTH
 40
50.0
  9
$CAMERAHEIGHT
 40
0.0
  9
$STEPSPERSEC
 40
2.0
  9
$STEPSIZE
 40
6.0
  9
$3DDWFPREC
 40
2.0
  9
$PSOLWIDTH
 40
0.25
  9
$PSOLHEIGHT
 40
4.0
  9
$LOFTANG1
 40
1.570796326794897
  9
$LOFTANG2
 40
1.570796326794897
  9
$LOFTMAG1
 40
0.0
  9
$LOFTMAG2
 40
0.0
  9
$LOFTPARAM
 70
     7
  9
$LOFTNORMALS
280
     1
  9
$LATITUDE
 40
37.795
  9
$LONGITUDE
 40
-122.394
  9
$NORTHDIRECTION
 40
0.0
  9
$TIMEZONE
 70
 -8000
  9
$LIGHTGLYPHDISPLAY
280
     1
  9
$TILEMODELIGHTSYNCH
280
     1
  9
$CMATERIAL
347
3C
  9
$SOLIDHIST
280
     1
  9
$SHOWHIST
280
     1
  9
$DWFFRAME
280
     2
  9
$DGNFRAME
280
     2
  9
$REALWORLDSCALE
290
     1
  9
$INTERFERECOLOR
 62
   256
  9
$CSHADOW
280
     0
  9
$SHADOWPLANELOCATION
 40
0.0
  0
ENDSEC
  0
SECTION
  2
CLASSES
  0
CLASS
  1
ACDBDICTIONARYWDFLT
  2
AcDbDictionaryWithDefault
  3
ObjectDBX Classes
 90
        0
 91
        4
280
     0
281
     0
  0
CLASS
  1
VISUALSTYLE
  2
AcDbVisualStyle
  3
ObjectDBX Classes
 90
     4095
 91
        4
280
     0
281
     0
  0
CLASS
  1
MATERIAL
  2
AcDbMaterial
  3
ObjectDBX Classes
 90
     1153
 91
        4
280
     0
281
     0
  0
CLASS
  1
SUN
  2
AcDbSun
  3
SCENEOE
 90
     1024
 91
        4
280
     0
281
     0
  0
ENDSEC
  0
SECTION
  2
TABLES
  0
TABLE
  2
VPORT
  5
8
330
0
100
AcDbSymbolTable
 70
     1
  0
VPORT
  5
29
330
8
100
AcDbSymbolTableRecord
100
AcDbViewportTableRecord
  2
*Active
 70
     0
 10
0.0
 20
0.0
 11
1.0
 21
1.0
 12
0.0
 22
0.0
 13
0.0
 23
0.0
 14
0.5
 24
0.5
 15
0.5
 25
0.5
 16
0.0
 26
0.0
 36
1.0
 17
480.0
 27
280.0
 37
0.0
 40
560.0
 41
1.714285714285714
 42
50.0
 43
0.0
 44
0.0
 50
0.0
 51
0.0
 71
     0
 72
   100
 73
     1
 74
     3
 75
     0
 76
     0
 77
     0
 78
     0
281
     0
 65
     1
110
0.0
120
0.0
130
0.0
111
1.0
121
0.0
131
0.0
112
0.0
122
1.0
132
0.0
 79
     0
146
0.0
 60
     3
 61
     5
292
     1
282
     1
141
0.0
142
0.0
 63
   250
361
3F
  0
ENDTAB
  0
TABLE
  2
LTYPE
  5
5
330
0
100
AcDbSymbolTable
 70
     1
  0
LTYPE
  5
14
330
5
100
AcDbSymbolTableRecord
100
AcDbLinetypeTableRecord
  2
ByBlock
 70
     0
  3

 72
    65
 73
     0
 40
0.0
  0
LTYPE
  5
15
330
5
100
AcDbSymbolTableRecord
100
AcDbLinetypeTableRecord
  2
ByLayer
 70
     0
  3

 72
    65
 73
     0
 40
0.0
  0
LTYPE
  5
16
330
5
100
AcDbSymbolTableRecord
100
AcDbLinetypeTableRecord
  2
Continuous
 70
     0
  3
Solid line
 72
    65
 73
     0
 40
0.0
  0
ENDTAB
  0
TABLE
  2
LAYER
  5
2
330
0
100
AcDbSymbolTable
 70
     2
  0
LAYER
  5
10
330
2
100
AcDbSymbolTableRecord
100
AcDbLayerTableRecord
  2
0
 70
     0
 62
     7
  6
Continuous
370
    -3
390
F
347
3E
  0
LAYER
  5
40
330
2
100
AcDbSymbolTableRecord
100
AcDbLayerTableRecord
  2
Layer 1
 70
     0
 62
     7
  6
Continuous
370
    -3
390
F
347
3E
  0
ENDTAB
  0
TABLE
  2
STYLE
  5
3
330
0
100
AcDbSymbolTable
 70
     1
  0
STYLE
  5
11
330
3
100
AcDbSymbolTableRecord
100
AcDbTextStyleTableRecord
  2
Standard
 70
     0
 40
0.0
 41
1.0
 50
0.0
 71
     0
 42
0.2
  3
txt
  4

  0
ENDTAB
  0
TABLE
  2
VIEW
  5
6
330
0
100
AcDbSymbolTable
 70
     0
  0
ENDTAB
  0
TABLE
  2
UCS
  5
7
330
0
100
AcDbSymbolTable
 70
     0
  0
ENDTAB
  0
TABLE
  2
APPID
  5
9
330
0
100
AcDbSymbolTable
 70
     1
  0
APPID
  5
12
330
9
100
AcDbSymbolTableRecord
100
AcDbRegAppTableRecord
  2
ACAD
 70
     0
  0
ENDTAB
  0
TABLE
  2
DIMSTYLE
  5
A
330
0
100
AcDbSymbolTable
 70
     1
100
AcDbDimStyleTable
  0
DIMSTYLE
105
27
330
A
100
AcDbSymbolTableRecord
100
AcDbDimStyleTableRecord
  2
Standard
 70
     0
178
     0
340
11
  0
ENDTAB
  0
TABLE
  2
BLOCK_RECORD
  5
1
330
0
100
AcDbSymbolTable
 70
    10
  0
BLOCK_RECORD
  5
1F
330
1
100
AcDbSymbolTableRecord
100
AcDbBlockTableRecord
  2
*Model_Space
340
22
 70
     0
280
     1
281
     0
  0
BLOCK_RECORD
  5
1B
330
1
100
AcDbSymbolTableRecord
100
AcDbBlockTableRecord
  2
*Paper_Space
340
1E
 70
     0
280
     1
281
     0
  0
BLOCK_RECORD
  5
23
330
1
100
AcDbSymbolTableRecord
100
AcDbBlockTableRecord
  2
*Paper_Space0
340
26
 70
     0
280
     1
281
     0
  0
BLOCK_RECORD
  5
41
330
1
100
AcDbSymbolTableRecord
100
AcDbBlockTableRecord
  2
block 2
340
0
102
{BLKREFS
331
42
102
}
 70
     0
280
     1
281
     0
  0
BLOCK_RECORD
  5
45
330
1
100
AcDbSymbolTableRecord
100
AcDbBlockTableRecord
  2
block 3
340
0
102
{BLKREFS
331
46
102
}
 70
     0
280
     1
281
     0
  0
BLOCK_RECORD
  5
49
330
1
100
AcDbSymbolTableRecord
100
AcDbBlockTableRecord
  2
block 4
340
0
102
{BLKREFS
331
4A
102
}
 70
     0
280
     1
281
     0
  0
BLOCK_RECORD
  5
4D
330
1
100
AcDbSymbolTableRecord
100
AcDbBlockTableRecord
  2
block 5
340
0
102
{BLKREFS
331
4E
102
}
 70
     0
280
     1
281
     0
  0
BLOCK_RECORD
  5
53
330
1
100
AcDbSymbolTableRecord
100
AcDbBlockTableRecord
  2
block 6
340
0
102
{BLKREFS
331
54
102
}
 70
     0
280
     1
281
     0
  0
BLOCK_RECORD
  5
57
330
1
100
AcDbSymbolTableRecord
100
AcDbBlockTableRecord
  2
block 7
340
0
102
{BLKREFS
331
58
102
}
 70
     0
280
     1
281
     0
  0
BLOCK_RECORD
  5
5D
330
1
100
AcDbSymbolTableRecord
100
AcDbBlockTableRecord
  2
block 8
340
0
102
{BLKREFS
331
5E
102
}
 70
     0
280
     1
281
     0
  0
BLOCK_RECORD
  5
61
330
1
100
AcDbSymbolTableRecord
100
AcDbBlockTableRecord
  2
block 9
340
0
102
{BLKREFS
331
62
102
}
 70
     0
280
     1
281
     0
  0
BLOCK_RECORD
  5
67
330
1
100
AcDbSymbolTableRecord
100
AcDbBlockTableRecord
  2
block 10
340
0
102
{BLKREFS
331
68
102
}
 70
     0
280
     1
281
     0
  0
ENDTAB
  0
ENDSEC
  0
SECTION
  2
BLOCKS
  0
BLOCK
  5
20
330
1F
100
AcDbEntity
  8
0
100
AcDbBlockBegin
  2
*Model_Space
 70
     0
 10
0.0
 20
0.0
 30
0.0
  3
*Model_Space
  1

  0
ENDBLK
  5
21
330
1F
100
AcDbEntity
  8
0
100
AcDbBlockEnd
  0
BLOCK
  5
1C
330
1B
100
AcDbEntity
 67
     1
  8
0
100
AcDbBlockBegin
  2
*Paper_Space
 70
     0
 10
0.0
 20
0.0
 30
0.0
  3
*Paper_Space
  1

  0
ENDBLK
  5
1D
330
1B
100
AcDbEntity
 67
     1
  8
0
100
AcDbBlockEnd
  0
BLOCK
  5
24
330
23
100
AcDbEntity
  8
0
100
AcDbBlockBegin
  2
*Paper_Space0
 70
     0
 10
0.0
 20
0.0
 30
0.0
  3
*Paper_Space0
  1

  0
ENDBLK
  5
25
330
23
100
AcDbEntity
  8
0
100
AcDbBlockEnd
  0
BLOCK
  5
43
330
41
100
AcDbEntity
  8
0
100
AcDbBlockBegin
  2
block 2
 70
     0
 10
0.0
 20
0.0
 30
0.0
  3
block 2
  1

  0
INSERT
  5
46
330
41
100
AcDbEntity
  8
Layer 1
100
AcDbBlockReference
  2
block 3
 10
0.0
 20
0.0
 30
0.0
  0
INSERT
  5
68
330
41
100
AcDbEntity
  8
Layer 1
100
AcDbBlockReference
  2
block 10
 10
0.0
 20
0.0
 30
0.0
  0
ENDBLK
  5
44
330
41
100
AcDbEntity
  8
0
100
AcDbBlockEnd
  0
BLOCK
  5
47
330
45
100
AcDbEntity
  8
0
100
AcDbBlockBegin
  2
block 3
 70
     0
 10
0.0
 20
0.0
 30
0.0
  3
block 3
  1

  0
INSERT
  5
4A
330
45
100
AcDbEntity
  8
Layer 1
100
AcDbBlockReference
  2
block 4
 10
0.0
 20
0.0
 30
0.0
  0
INSERT
  5
54
330
45
100
AcDbEntity
  8
Layer 1
100
AcDbBlockReference
  2
block 6
 10
0.0
 20
0.0
 30
0.0
  0
INSERT
  5
5E
330
45
100
AcDbEntity
  8
Layer 1
100
AcDbBlockReference
  2
block 8
 10
0.0
 20
0.0
 30
0.0
  0
ENDBLK
  5
48
330
45
100
AcDbEntity
  8
0
100
AcDbBlockEnd
  0
BLOCK
  5
4B
330
49
100
AcDbEntity
  8
0
100
AcDbBlockBegin
  2
block 4
 70
     0
 10
0.0
 20
0.0
 30
0.0
  3
block 4
  1

  0
INSERT
  5
4E
330
49
100
AcDbEntity
  8
Layer 1
100
AcDbBlockReference
  2
block 5
 10
0.0
 20
0.0
 30
0.0
  0
ENDBLK
  5
4C
330
49
100
AcDbEntity
  8
0
100
AcDbBlockEnd
  0
BLOCK
  5
4F
330
4D
100
AcDbEntity
  8
0
100
AcDbBlockBegin
  2
block 5
 70
     0
 10
0.0
 20
0.0
 30
0.0
  3
block 5
  1

  0
SPLINE
  5
51
330
4D
100
AcDbEntity
  8
Layer 1
370
     0
100
AcDbSpline
210
0.0
220
0.0
230
1.0
 70
    11
 71
     3
 72
    38
 73
    34
 74
     0
 42
0.0000000001
 43
0.0000000001
 12
1.0
 22
0.0
 32
0.0
 13
1.0
 23
0.0
 33
0.0
 40
0.0
 40
0.0
 40
0.0
 40
0.0
 40
1.0
 40
1.0
 40
1.0
 40
2.0
 40
2.0
 40
2.0
 40
3.0
 40
3.0
 40
3.0
 40
4.0
 40
4.0
 40
4.0
 40
5.0
 40
5.0
 40
5.0
 40
6.0
 40
6.0
 40
6.0
 40
7.0
 40
7.0
 40
7.0
 40
8.0
 40
8.0
 40
8.0
 40
9.0
 40
9.0
 40
9.0
 40
10.0
 40
10.0
 40
10.0
 40
11.0
 40
11.0
 40
11.0
 40
11.0
 10
285.7860601688917
 20
150.0846457094503
 30
0.0
 10
282.0943254463837
 20
150.0846457094503
 30
0.0
 10
278.4025907238529
 20
151.4937047638632
 30
0.0
 10
275.5844726150444
 20
154.3118228726526
 30
0.0
 10
269.9482363974475
 20
159.9480590902494
 30
0.0
 10
269.9482363974475
 20
169.0787617627902
 30
0.0
 10
275.5844726150444
 20
174.7149979804053
 30
0.0
 10
275.5844726150444
 20
174.7149979804053
 30
0.0
 10
492.4732238700672
 20
391.6107945306958
 30
0.0
 10
492.4732238700672
 20
391.6107945306958
 30
0.0
 10
496.6017668994773
 20
395.7463828553518
 30
0.0
 10
502.7875361482766
 20
396.9793095279565
 30
0.0
 10
508.1983229171874
 20
394.7389056314723
 30
0.0
 10
513.5879738002859
 20
392.5055470302323
 30
0.0
 10
517.1035761410039
 20
387.2427114620295
 30
0.0
 10
517.1035761410039
 20
381.4092069768303
 30
0.0
 10
517.1035761410039
 20
381.4092069768303
 30
0.0
 10
517.1035761410039
 20
164.515869367151
 30
0.0
 10
517.1035761410039
 20
164.515869367151
 30
0.0
 10
517.1035761410039
 20
156.5476404145211
 30
0.0
 10
510.6430403765862
 20
150.0871046500979
 30
0.0
 10
502.6748114239144
 20
150.0871046500979
 30
0.0
 10
494.70658247131
 20
150.0871046500979
 30
0.0
 10
488.2460467068449
 20
156.5476404145211
 30
0.0
 10
488.2460467068449
 20
164.515869367151
 30
0.0
 10
488.2460467068449
 20
164.515869367151
 30
0.0
 10
488.2460467068449
 20
346.5772671520235
 30
0.0
 10
488.2460467068449
 20
346.5772671520235
 30
0.0
 10
488.2460467068449
 20
346.5772671520235
 30
0.0
 10
295.9876477227999
 20
154.3118228726526
 30
0.0
 10
295.9876477227999
 20
154.3118228726526
 30
0.0
 10
293.1695296139906
 20
151.4937047638632
 30
0.0
 10
289.4777948914416
 20
150.0846457094503
 30
0.0
 10
285.7860601688917
 20
150.0846457094503
 30
0.0
  0
HATCH
  5
52
330
4D
100
AcDbEntity
  8
Layer 1
 62
     7
420
 16777215
100
AcDbHatch
 10
0.0
 20
0.0
 30
0.0
210
0.0
220
0.0
230
1.0
  2
SOLID
 70
     1
 71
     0
 91
        1
 92
        1
 93
        1
 72
     4
 94
        3
 73
     0
 74
     1
 95
       38
 96
       34
 40
0.0
 40
0.0
 40
0.0
 40
0.0
 40
1.0
 40
1.0
 40
1.0
 40
2.0
 40
2.0
 40
2.0
 40
3.0
 40
3.0
 40
3.0
 40
4.0
 40
4.0
 40
4.0
 40
5.0
 40
5.0
 40
5.0
 40
6.0
 40
6.0
 40
6.0
 40
7.0
 40
7.0
 40
7.0
 40
8.0
 40
8.0
 40
8.0
 40
9.0
 40
9.0
 40
9.0
 40
10.0
 40
10.0
 40
10.0
 40
11.0
 40
11.0
 40
11.0
 40
11.0
 10
285.7860601688917
 20
150.0846457094503
 10
282.0943254463837
 20
150.0846457094503
 10
278.4025907238529
 20
151.4937047638632
 10
275.5844726150444
 20
154.3118228726526
 10
269.9482363974475
 20
159.9480590902494
 10
269.9482363974475
 20
169.0787617627902
 10
275.5844726150444
 20
174.7149979804053
 10
275.5844726150444
 20
174.7149979804053
 10
492.4732238700672
 20
391.6107945306958
 10
492.4732238700672
 20
391.6107945306958
 10
496.6017668994773
 20
395.7463828553518
 10
502.7875361482766
 20
396.9793095279565
 10
508.1983229171874
 20
394.7389056314723
 10
513.5879738002859
 20
392.5055470302323
 10
517.1035761410039
 20
387.2427114620295
 10
517.1035761410039
 20
381.4092069768303
 10
517.1035761410039
 20
381.4092069768303
 10
517.1035761410039
 20
164.515869367151
 10
517.1035761410039
 20
164.515869367151
 10
517.1035761410039
 20
156.5476404145211
 10
510.6430403765862
 20
150.0871046500979
 10
502.6748114239144
 20
150.0871046500979
 10
494.70658247131
 20
150.0871046500979
 10
488.2460467068449
 20
156.5476404145211
 10
488.2460467068449
 20
164.515869367151
 10
488.2460467068449
 20
164.515869367151
 10
488.2460467068449
 20
346.5772671520235
 10
488.2460467068449
 20
346.5772671520235
 10
488.2460467068449
 20
346.5772671520235
 10
295.9876477227999
 20
154.3118228726526
 10
295.9876477227999
 20
154.3118228726526
 10
293.1695296139906
 20
151.4937047638632
 10
289.4777948914416
 20
150.0846457094503
 10
285.7860601688917
 20
150.0846457094503
 97
        0
 97
        0
 75
     2
 76
     1
 98
        0
  0
ENDBLK
  5
50
330
4D
100
AcDbEntity
  8
0
100
AcDbBlockEnd
  0
BLOCK
  5
55
330
53
100
AcDbEntity
  8
0
100
AcDbBlockBegin
  2
block 6
 70
     0
 10
0.0
 20
0.0
 30
0.0
  3
block 6
  1

  0
INSERT
  5
58
330
53
100
AcDbEntity
  8
Layer 1
100
AcDbBlockReference
  2
block 7
 10
0.0
 20
0.0
 30
0.0
  0
ENDBLK
  5
56
330
53
100
AcDbEntity
  8
0
100
AcDbBlockEnd
  0
BLOCK
  5
59
330
57
100
AcDbEntity
  8
0
100
AcDbBlockBegin
  2
block 7
 70
     0
 10
0.0
 20
0.0
 30
0.0
  3
block 7
  1

  0
SPLINE
  5
5B
330
57
100
AcDbEntity
  8
Layer 1
370
     0
100
AcDbSpline
210
0.0
220
0.0
230
1.0
 70
    11
 71
     3
 72
    47
 73
    43
 74
     0
 42
0.0000000001
 43
0.0000000001
 12
1.0
 22
0.0
 32
0.0
 13
1.0
 23
0.0
 33
0.0
 40
0.0
 40
0.0
 40
0.0
 40
0.0
 40
1.0
 40
1.0
 40
1.0
 40
2.0
 40
2.0
 40
2.0
 40
3.0
 40
3.0
 40
3.0
 40
4.0
 40
4.0
 40
4.0
 40
5.0
 40
5.0
 40
5.0
 40
6.0
 40
6.0
 40
6.0
 40
7.0
 40
7.0
 40
7.0
 40
8.0
 40
8.0
 40
8.0
 40
9.0
 40
9.0
 40
9.0
 40
10.0
 40
10.0
 40
10.0
 40
11.0
 40
11.0
 40
11.0
 40
12.0
 40
12.0
 40
12.0
 40
13.0
 40
13.0
 40
13.0
 40
14.0
 40
14.0
 40
14.0
 40
14.0
 10
560.3335079300141
 20
193.9902621509318
 30
0.0
 10
558.4665046829432
 20
193.9902621509318
 30
0.0
 10
556.5854108453041
 20
194.3495722098178
 30
0.0
 10
554.7888605509452
 20
195.0963735086225
 30
0.0
 10
549.4133002584185
 20
197.3367774051512
 30
0.0
 10
545.9047432129428
 20
202.592567678068
 30
0.0
 10
545.9047432129428
 20
208.4190268680013
 30
0.0
 10
545.9047432129428
 20
208.4190268680013
 30
0.0
 10
545.9047432129428
 20
439.0679034829054
 30
0.0
 10
545.9047432129428
 20
439.0679034829054
 30
0.0
 10
545.9047432129428
 20
442.8934988156161
 30
0.0
 10
547.4265269917014
 20
446.5640976523291
 30
0.0
 10
550.1319203761686
 20
449.2694910367754
 30
0.0
 10
550.1319203761686
 20
449.2694910367754
 30
0.0
 10
651.4896511313382
 20
550.6272217919886
 30
0.0
 10
651.4896511313382
 20
550.6272217919886
 30
0.0
 10
657.1258873489587
 20
556.2634580096055
 30
0.0
 10
666.2565900214577
 20
556.2634580096055
 30
0.0
 10
671.8928262390727
 20
550.6272217919886
 30
0.0
 10
677.5290624566715
 20
544.9909855743726
 30
0.0
 10
677.5290624566715
 20
535.8602829018282
 30
0.0
 10
671.8928262390727
 20
530.224046684234
 30
0.0
 10
671.8928262390727
 20
530.224046684234
 30
0.0
 10
574.7622726470836
 20
433.0934930922822
 30
0.0
 10
574.7622726470836
 20
433.0934930922822
 30
0.0
 10
574.7622726470836
 20
433.0934930922822
 30
0.0
 10
574.7622726470836
 20
243.110060787365
 30
0.0
 10
574.7622726470836
 20
243.110060787365
 30
0.0
 10
574.7622726470836
 20
243.110060787365
 30
0.0
 10
651.5178323124419
 20
319.3301780120255
 30
0.0
 10
651.5178323124419
 20
319.3301780120255
 30
0.0
 10
657.1681591205852
 20
324.9664142296451
 30
0.0
 10
666.2988617931078
 20
324.9382330485432
 30
0.0
 10
671.9210074201765
 20
319.2738156498463
 30
0.0
 10
677.5431530472233
 20
313.6234888416975
 30
0.0
 10
677.5149718661196
 20
304.4857408739135
 30
0.0
 10
671.8646450579945
 20
298.870640542129
 30
0.0
 10
671.8646450579945
 20
298.870640542129
 30
0.0
 10
570.5069143027813
 20
198.1892581330558
 30
0.0
 10
570.5069143027813
 20
198.1892581330558
 30
0.0
 10
567.7451585561739
 20
195.4415929769548
 30
0.0
 10
564.0675144241759
 20
193.9902621509318
 30
0.0
 10
560.3335079300141
 20
193.9902621509318
 30
0.0
  0
HATCH
  5
5C
330
57
100
AcDbEntity
  8
Layer 1
 62
     7
420
 16777215
100
AcDbHatch
 10
0.0
 20
0.0
 30
0.0
210
0.0
220
0.0
230
1.0
  2
SOLID
 70
     1
 71
     0
 91
        1
 92
        1
 93
        1
 72
     4
 94
        3
 73
     0
 74
     1
 95
       47
 96
       43
 40
0.0
 40
0.0
 40
0.0
 40
0.0
 40
1.0
 40
1.0
 40
1.0
 40
2.0
 40
2.0
 40
2.0
 40
3.0
 40
3.0
 40
3.0
 40
4.0
 40
4.0
 40
4.0
 40
5.0
 40
5.0
 40
5.0
 40
6.0
 40
6.0
 40
6.0
 40
7.0
 40
7.0
 40
7.0
 40
8.0
 40
8.0
 40
8.0
 40
9.0
 40
9.0
 40
9.0
 40
10.0
 40
10.0
 40
10.0
 40
11.0
 40
11.0
 40
11.0
 40
12.0
 40
12.0
 40
12.0
 40
13.0
 40
13.0
 40
13.0
 40
14.0
 40
14.0
 40
14.0
 40
14.0
 10
560.3335079300141
 20
193.9902621509318
 10
558.4665046829432
 20
193.9902621509318
 10
556.5854108453041
 20
194.3495722098178
 10
554.7888605509452
 20
195.0963735086225
 10
549.4133002584185
 20
197.3367774051512
 10
545.9047432129428
 20
202.592567678068
 10
545.9047432129428
 20
208.4190268680013
 10
545.9047432129428
 20
208.4190268680013
 10
545.9047432129428
 20
439.0679034829054
 10
545.9047432129428
 20
439.0679034829054
 10
545.9047432129428
 20
442.8934988156161
 10
547.4265269917014
 20
446.5640976523291
 10
550.1319203761686
 20
449.2694910367754
 10
550.1319203761686
 20
449.2694910367754
 10
651.4896511313382
 20
550.6272217919886
 10
651.4896511313382
 20
550.6272217919886
 10
657.1258873489587
 20
556.2634580096055
 10
666.2565900214577
 20
556.2634580096055
 10
671.8928262390727
 20
550.6272217919886
 10
677.5290624566715
 20
544.9909855743726
 10
677.5290624566715
 20
535.8602829018282
 10
671.8928262390727
 20
530.224046684234
 10
671.8928262390727
 20
530.224046684234
 10
574.7622726470836
 20
433.0934930922822
 10
574.7622726470836
 20
433.0934930922822
 10
574.7622726470836
 20
433.0934930922822
 10
574.7622726470836
 20
243.110060787365
 10
574.7622726470836
 20
243.110060787365
 10
574.7622726470836
 20
243.110060787365
 10
651.5178323124419
 20
319.3301780120255
 10
651.5178323124419
 20
319.3301780120255
 10
657.1681591205852
 20
324.9664142296451
 10
666.2988617931078
 20
324.9382330485432
 10
671.9210074201765
 20
319.2738156498463
 10
677.5431530472233
 20
313.6234888416975
 10
677.5149718661196
 20
304.4857408739135
 10
671.8646450579945
 20
298.870640542129
 10
671.8646450579945
 20
298.870640542129
 10
570.5069143027813
 20
198.1892581330558
 10
570.5069143027813
 20
198.1892581330558
 10
567.7451585561739
 20
195.4415929769548
 10
564.0675144241759
 20
193.9902621509318
 10
560.3335079300141
 20
193.9902621509318
 97
        0
 97
        0
 75
     2
 76
     1
 98
        0
  0
ENDBLK
  5
5A
330
57
100
AcDbEntity
  8
0
100
AcDbBlockEnd
  0
BLOCK
  5
5F
330
5D
100
AcDbEntity
  8
0
100
AcDbBlockBegin
  2
block 8
 70
     0
 10
0.0
 20
0.0
 30
0.0
  3
block 8
  1

  0
INSERT
  5
62
330
5D
100
AcDbEntity
  8
Layer 1
100
AcDbBlockReference
  2
block 9
 10
0.0
 20
0.0
 30
0.0
  0
ENDBLK
  5
60
330
5D
100
AcDbEntity
  8
0
100
AcDbBlockEnd
  0
BLOCK
  5
63
330
61
100
AcDbEntity
  8
0
100
AcDbBlockBegin
  2
block 9
 70
     0
 10
0.0
 20
0.0
 30
0.0
  3
block 9
  1

  0
SPLINE
  5
65
330
61
100
AcDbEntity
  8
Layer 1
370
     0
100
AcDbSpline
210
0.0
220
0.0
230
1.0
 70
    11
 71
     3
 72
    26
 73
    22
 74
     0
 42
0.0000000001
 43
0.0000000001
 12
1.0
 22
0.0
 32
0.0
 13
1.0
 23
0.0
 33
0.0
 40
0.0
 40
0.0
 40
0.0
 40
0.0
 40
1.0
 40
1.0
 40
1.0
 40
2.0
 40
2.0
 40
2.0
 40
3.0
 40
3.0
 40
3.0
 40
4.0
 40
4.0
 40
4.0
 40
5.0
 40
5.0
 40
5.0
 40
6.0
 40
6.0
 40
6.0
 40
7.0
 40
7.0
 40
7.0
 40
7.0
 10
401.4416273541574
 20
150.0846457094503
 30
0.0
 10
397.7498926316293
 20
150.0846457094503
 30
0.0
 10
394.0581579090986
 20
151.4937047638632
 30
0.0
 10
391.240039800291
 20
154.3118228726526
 30
0.0
 10
385.603803582675
 20
159.9480590902494
 30
0.0
 10
385.603803582675
 20
169.0787617627902
 30
0.0
 10
391.240039800291
 20
174.7149979804053
 30
0.0
 10
391.240039800291
 20
174.7149979804053
 30
0.0
 10
651.4896511313382
 20
434.9646093114579
 30
0.0
 10
651.4896511313382
 20
434.9646093114579
 30
0.0
 10
657.1258873489587
 20
440.6008455290539
 30
0.0
 10
666.2565900214577
 20
440.6008455290539
 30
0.0
 10
671.8928262390727
 20
434.9646093114579
 30
0.0
 10
677.5290624566715
 20
429.3283730938601
 30
0.0
 10
677.5290624566715
 20
420.1976704213384
 30
0.0
 10
671.8928262390727
 20
414.5614342037225
 30
0.0
 10
671.8928262390727
 20
414.5614342037225
 30
0.0
 10
411.6432149080265
 20
154.3118228726526
 30
0.0
 10
411.6432149080265
 20
154.3118228726526
 30
0.0
 10
408.825096799218
 20
151.4937047638632
 30
0.0
 10
405.1333620766873
 20
150.0846457094503
 30
0.0
 10
401.4416273541574
 20
150.0846457094503
 30
0.0
  0
HATCH
  5
66
330
61
100
AcDbEntity
  8
Layer 1
 62
     7
420
 16777215
100
AcDbHatch
 10
0.0
 20
0.0
 30
0.0
210
0.0
220
0.0
230
1.0
  2
SOLID
 70
     1
 71
     0
 91
        1
 92
        1
 93
        1
 72
     4
 94
        3
 73
     0
 74
     1
 95
       26
 96
       22
 40
0.0
 40
0.0
 40
0.0
 40
0.0
 40
1.0
 40
1.0
 40
1.0
 40
2.0
 40
2.0
 40
2.0
 40
3.0
 40
3.0
 40
3.0
 40
4.0
 40
4.0
 40
4.0
 40
5.0
 40
5.0
 40
5.0
 40
6.0
 40
6.0
 40
6.0
 40
7.0
 40
7.0
 40
7.0
 40
7.0
 10
401.4416273541574
 20
150.0846457094503
 10
397.7498926316293
 20
150.0846457094503
 10
394.0581579090986
 20
151.4937047638632
 10
391.240039800291
 20
154.3118228726526
 10
385.603803582675
 20
159.9480590902494
 10
385.603803582675
 20
169.0787617627902
 10
391.240039800291
 20
174.7149979804053
 10
391.240039800291
 20
174.7149979804053
 10
651.4896511313382
 20
434.9646093114579
 10
651.4896511313382
 20
434.9646093114579
 10
657.1258873489587
 20
440.6008455290539
 10
666.2565900214577
 20
440.6008455290539
 10
671.8928262390727
 20
434.9646093114579
 10
677.5290624566715
 20
429.3283730938601
 10
677.5290624566715
 20
420.1976704213384
 10
671.8928262390727
 20
414.5614342037225
 10
671.8928262390727
 20
414.5614342037225
 10
411.6432149080265
 20
154.3118228726526
 10
411.6432149080265
 20
154.3118228726526
 10
408.825096799218
 20
151.4937047638632
 10
405.1333620766873
 20
150.0846457094503
 10
401.4416273541574
 20
150.0846457094503
 97
        0
 97
        0
 75
     2
 76
     1
 98
        0
  0
ENDBLK
  5
64
330
61
100
AcDbEntity
  8
0
100
AcDbBlockEnd
  0
BLOCK
  5
69
330
67
100
AcDbEntity
  8
0
100
AcDbBlockBegin
  2
block 10
 70
     0
 10
0.0
 20
0.0
 30
0.0
  3
block 10
  1

  0
POLYLINE
  5
6B
330
67
100
AcDbEntity
  8
Layer 1
370
     0
100
AcDb2dPolyline
 66
     1
 10
0.0
 20
0.0
 30
0.0
  0
VERTEX
  5
6C
330
6B
100
AcDbEntity
  8
Layer 1
370
     0
100
AcDbVertex
100
AcDb2dVertex
 10
240.8860640308267
 20
86.79972714320866
 30
0.0
  0
VERTEX
  5
6D
330
6B
100
AcDbEntity
  8
Layer 1
370
     0
100
AcDbVertex
100
AcDb2dVertex
 10
300.5595861472839
 20
86.79972714320866
 30
0.0
  0
VERTEX
  5
6E
330
6B
100
AcDbEntity
  8
Layer 1
370
     0
100
AcDbVertex
100
AcDb2dVertex
 10
300.5595861472839
 20
73.80167560626796
 30
0.0
  0
VERTEX
  5
6F
330
6B
100
AcDbEntity
  8
Layer 1
370
     0
100
AcDbVertex
100
AcDb2dVertex
 10
267.8655387639128
 20
73.80167560626796
 30
0.0
  0
VERTEX
  5
70
330
6B
100
AcDbEntity
  8
Layer 1
370
     0
100
AcDbVertex
100
AcDb2dVertex
 10
267.8655387639128
 20
58.73487124269923
 30
0.0
  0
VERTEX
  5
71
330
6B
100
AcDbEntity
  8
Layer 1
370
     0
100
AcDbVertex
100
AcDb2dVertex
 10
298.5887624485422
 20
58.73487124269923
 30
0.0
  0
VERTEX
  5
72
330
6B
100
AcDbEntity
  8
Layer 1
370
     0
100
AcDbVertex
100
AcDb2dVertex
 10
298.5887624485422
 20
46.72223155513166
 30
0.0
  0
VERTEX
  5
73
330
6B
100
AcDbEntity
  8
Layer 1
370
     0
100
AcDbVertex
100
AcDb2dVertex
 10
267.8655387639128
 20
46.72223155513166
 30
0.0
  0
VERTEX
  5
74
330
6B
100
AcDbEntity
  8
Layer 1
370
     0
100
AcDbVertex
100
AcDb2dVertex
 10
267.8655387639128
 20
29.4887452370458
 30
0.0
  0
VERTEX
  5
75
330
6B
100
AcDbEntity
  8
Layer 1
370
     0
100
AcDbVertex
100
AcDb2dVertex
 10
301.3470995507159
 20
29.4887452370458
 30
0.0
  0
VERTEX
  5
76
330
6B
100
AcDbEntity
  8
Layer 1
370
     0
100
AcDbVertex
100
AcDb2dVertex
 10
301.3470995507159
 20
16.49069370010511
 30
0.0
  0
VERTEX
  5
77
330
6B
100
AcDbEntity
  8
Layer 1
370
     0
100
AcDbVertex
100
AcDb2dVertex
 10
252.8987037183961
 20
16.49069370010511
 30
0.0
  0
VERTEX
  5
78
330
6B
100
AcDbEntity
  8
Layer 1
370
     0
100
AcDbVertex
100
AcDb2dVertex
 10
252.8987037183961
 20
32.14711302116484
 30
0.0
  0
VERTEX
  5
79
330
6B
100
AcDbEntity
  8
Layer 1
370
     0
100
AcDbVertex
100
AcDb2dVertex
 10
230.8422078518352
 20
32.14711302116484
 30
0.0
  0
VERTEX
  5
7A
330
6B
100
AcDbEntity
  8
Layer 1
370
     0
100
AcDbVertex
100
AcDb2dVertex
 10
223.7505068406281
 20
16.49069370010511
 30
0.0
  0
VERTEX
  5
7B
330
6B
100
AcDbEntity
  8
Layer 1
370
     0
100
AcDbVertex
100
AcDb2dVertex
 10
207.3065741161372
 20
16.49069370010511
 30
0.0
  0
VERTEX
  5
7C
330
6B
100
AcDbEntity
  8
Layer 1
370
     0
100
AcDbVertex
100
AcDb2dVertex
 10
240.8860640308267
 20
86.79972714320866
 30
0.0
  0
SEQEND
  5
7D
330
6B
100
AcDbEntity
  8
Layer 1
370
     0
  0
POLYLINE
  5
7E
330
67
100
AcDbEntity
  8
Layer 1
370
     0
100
AcDb2dPolyline
 66
     1
 10
0.0
 20
0.0
 30
0.0
  0
VERTEX
  5
7F
330
7E
100
AcDbEntity
  8
Layer 1
370
     0
100
AcDbVertex
100
AcDb2dVertex
 10
235.9610449741367
 20
43.66806687913049
 30
0.0
  0
VERTEX
  5
80
330
7E
100
AcDbEntity
  8
Layer 1
370
     0
100
AcDbVertex
100
AcDb2dVertex
 10
252.8987037183961
 20
43.66806687913049
 30
0.0
  0
VERTEX
  5
81
330
7E
100
AcDbEntity
  8
Layer 1
370
     0
100
AcDbVertex
100
AcDb2dVertex
 10
252.8987037183961
 20
73.80167560626796
 30
0.0
  0
VERTEX
  5
82
330
7E
100
AcDbEntity
  8
Layer 1
370
     0
100
AcDbVertex
100
AcDb2dVertex
 10
249.5507516587322
 20
73.80167560626796
 30
0.0
  0
VERTEX
  5
83
330
7E
100
AcDbEntity
  8
Layer 1
370
     0
100
AcDbVertex
100
AcDb2dVertex
 10
235.9610449741367
 20
43.66806687913049
 30
0.0
  0
SEQEND
  5
84
330
7E
100
AcDbEntity
  8
Layer 1
370
     0
  0
HATCH
  5
85
330
67
100
AcDbEntity
  8
Layer 1
 62
     7
420
 16777215
100
AcDbHatch
 10
0.0
 20
0.0
 30
0.0
210
0.0
220
0.0
230
1.0
  2
SOLID
 70
     1
 71
     0
 91
        2
 92
        1
 93
       16
 72
     1
 10
240.8860640308267
 20
86.79972714320866
 11
300.5595861472839
 21
86.79972714320866
 72
     1
 10
300.5595861472839
 20
86.79972714320866
 11
300.5595861472839
 21
73.80167560626796
 72
     1
 10
300.5595861472839
 20
73.80167560626796
 11
267.8655387639128
 21
73.80167560626796
 72
     1
 10
267.8655387639128
 20
73.80167560626796
 11
267.8655387639128
 21
58.73487124269923
 72
     1
 10
267.8655387639128
 20
58.73487124269923
 11
298.5887624485422
 21
58.73487124269923
 72
     1
 10
298.5887624485422
 20
58.73487124269923
 11
298.5887624485422
 21
46.72223155513166
 72
     1
 10
298.5887624485422
 20
46.72223155513166
 11
267.8655387639128
 21
46.72223155513166
 72
     1
 10
267.8655387639128
 20
46.72223155513166
 11
267.8655387639128
 21
29.4887452370458
 72
     1
 10
267.8655387639128
 20
29.4887452370458
 11
301.3470995507159
 21
29.4887452370458
 72
     1
 10
301.3470995507159
 20
29.4887452370458
 11
301.3470995507159
 21
16.49069370010511
 72
     1
 10
301.3470995507159
 20
16.49069370010511
 11
252.8987037183961
 21
16.49069370010511
 72
     1
 10
252.8987037183961
 20
16.49069370010511
 11
252.8987037183961
 21
32.14711302116484
 72
     1
 10
252.8987037183961
 20
32.14711302116484
 11
230.8422078518352
 21
32.14711302116484
 72
     1
 10
230.8422078518352
 20
32.14711302116484
 11
223.7505068406281
 21
16.49069370010511
 72
     1
 10
223.7505068406281
 20
16.49069370010511
 11
207.3065741161372
 21
16.49069370010511
 72
     1
 10
207.3065741161372
 20
16.49069370010511
 11
240.8860640308267
 21
86.79972714320866
 97
        0
 92
        1
 93
        4
 72
     1
 10
235.9610449741367
 20
43.66806687913049
 11
252.8987037183961
 21
43.66806687913049
 72
     1
 10
252.8987037183961
 20
43.66806687913049
 11
252.8987037183961
 21
73.80167560626796
 72
     1
 10
252.8987037183961
 20
73.80167560626796
 11
249.5507516587322
 21
73.80167560626796
 72
     1
 10
249.5507516587322
 20
73.80167560626796
 11
235.9610449741367
 21
43.66806687913049
 97
        0
 75
     2
 76
     1
 98
        0
  0
SPLINE
  5
86
330
67
100
AcDbEntity
  8
Layer 1
370
     0
100
AcDbSpline
210
0.0
220
0.0
230
1.0
 70
    11
 71
     3
 72
    26
 73
    22
 74
     0
 42
0.0000000001
 43
0.0000000001
 12
1.0
 22
0.0
 32
0.0
 13
1.0
 23
0.0
 33
0.0
 40
0.0
 40
0.0
 40
0.0
 40
0.0
 40
1.0
 40
1.0
 40
1.0
 40
2.0
 40
2.0
 40
2.0
 40
3.0
 40
3.0
 40
3.0
 40
4.0
 40
4.0
 40
4.0
 40
5.0
 40
5.0
 40
5.0
 40
6.0
 40
6.0
 40
6.0
 40
7.0
 40
7.0
 40
7.0
 40
7.0
 10
311.7683909101079
 20
86.79972714320866
 30
0.0
 10
311.7683909101079
 20
86.79972714320866
 30
0.0
 10
344.8561949951945
 20
86.79972714320866
 30
0.0
 10
344.8561949951945
 20
86.79972714320866
 30
0.0
 10
358.2480032338499
 20
86.79972714320866
 30
0.0
 10
367.3064475634701
 20
82.46636323417442
 30
0.0
 10
367.3064475634701
 20
69.3703825693483
 30
0.0
 10
367.3064475634701
 20
62.47658000407864
 30
0.0
 10
363.8605663759181
 20
57.65153026544067
 30
0.0
 10
357.7542772140823
 20
54.6973349074924
 30
0.0
 10
366.3210357140997
 20
52.23482537914788
 30
0.0
 10
370.6543996231339
 20
45.6388905778731
 30
0.0
 10
370.6543996231339
 20
36.87423363191374
 30
0.0
 10
370.6543996231339
 20
22.59494267177615
 30
0.0
 10
358.5438308076773
 20
16.49069370010511
 30
0.0
 10
345.8395666544011
 20
16.49069370010511
 30
0.0
 10
345.8395666544011
 20
16.49069370010511
 30
0.0
 10
311.7683909101079
 20
16.49069370010511
 30
0.0
 10
311.7683909101079
 20
16.49069370010511
 30
0.0
 10
311.7683909101079
 20
16.49069370010511
 30
0.0
 10
311.7683909101079
 20
86.79972714320866
 30
0.0
 10
311.7683909101079
 20
86.79972714320866
 30
0.0
  0
SPLINE
  5
87
330
67
100
AcDbEntity
  8
Layer 1
370
     0
100
AcDbSpline
210
0.0
220
0.0
230
1.0
 70
    11
 71
     3
 72
    20
 73
    16
 74
     0
 42
0.0000000001
 43
0.0000000001
 12
1.0
 22
0.0
 32
0.0
 13
1.0
 23
0.0
 33
0.0
 40
0.0
 40
0.0
 40
0.0
 40
0.0
 40
1.0
 40
1.0
 40
1.0
 40
2.0
 40
2.0
 40
2.0
 40
3.0
 40
3.0
 40
3.0
 40
4.0
 40
4.0
 40
4.0
 40
5.0
 40
5.0
 40
5.0
 40
5.0
 10
327.2289519753922
 20
58.34111454098456
 30
0.0
 10
327.2289519753922
 20
58.34111454098456
 30
0.0
 10
342.8853712964528
 20
58.34111454098456
 30
0.0
 10
342.8853712964528
 20
58.34111454098456
 30
0.0
 10
348.3020761827465
 20
58.34111454098456
 30
0.0
 10
352.3396125179534
 20
60.80362406933091
 30
0.0
 10
352.3396125179534
 20
66.7099745950618
 30
0.0
 10
352.3396125179534
 20
73.4079189045533
 30
0.0
 10
347.2187352054871
 20
74.78504726547544
 30
0.0
 10
341.7041011913061
 20
74.78504726547544
 30
0.0
 10
341.7041011913061
 20
74.78504726547544
 30
0.0
 10
327.2289519753922
 20
74.78504726547544
 30
0.0
 10
327.2289519753922
 20
74.78504726547544
 30
0.0
 10
327.2289519753922
 20
74.78504726547544
 30
0.0
 10
327.2289519753922
 20
58.34111454098456
 30
0.0
 10
327.2289519753922
 20
58.34111454098456
 30
0.0
  0
SPLINE
  5
88
330
67
100
AcDbEntity
  8
Layer 1
370
     0
100
AcDbSpline
210
0.0
220
0.0
230
1.0
 70
    11
 71
     3
 72
    20
 73
    16
 74
     0
 42
0.0000000001
 43
0.0000000001
 12
1.0
 22
0.0
 32
0.0
 13
1.0
 23
0.0
 33
0.0
 40
0.0
 40
0.0
 40
0.0
 40
0.0
 40
1.0
 40
1.0
 40
1.0
 40
2.0
 40
2.0
 40
2.0
 40
3.0
 40
3.0
 40
3.0
 40
4.0
 40
4.0
 40
4.0
 40
5.0
 40
5.0
 40
5.0
 40
5.0
 10
327.2289519753922
 20
28.50333338767268
 30
0.0
 10
327.2289519753922
 20
28.50333338767268
 30
0.0
 10
343.772854017936
 20
28.50333338767268
 30
0.0
 10
343.772854017936
 20
28.50333338767268
 30
0.0
 10
349.8771029896088
 20
28.50333338767268
 30
0.0
 10
355.1938385578487
 20
30.47415708641529
 30
0.0
 10
355.1938385578487
 20
37.75967616323396
 30
0.0
 10
355.1938385578487
 20
44.94930630232921
 30
0.0
 10
350.6646163930391
 20
47.80353234222639
 30
0.0
 10
344.0666414015996
 20
47.80353234222639
 30
0.0
 10
344.0666414015996
 20
47.80353234222639
 30
0.0
 10
327.2289519753922
 20
47.80353234222639
 30
0.0
 10
327.2289519753922
 20
47.80353234222639
 30
0.0
 10
327.2289519753922
 20
47.80353234222639
 30
0.0
 10
327.2289519753922
 20
28.50333338767268
 30
0.0
 10
327.2289519753922
 20
28.50333338767268
 30
0.0
  0
HATCH
  5
89
330
67
100
AcDbEntity
  8
Layer 1
 62
     7
420
 16777215
100
AcDbHatch
 10
0.0
 20
0.0
 30
0.0
210
0.0
220
0.0
230
1.0
  2
SOLID
 70
     1
 71
     0
 91
        3
 92
        1
 93
        1
 72
     4
 94
        3
 73
     0
 74
     1
 95
       26
 96
       22
 40
0.0
 40
0.0
 40
0.0
 40
0.0
 40
1.0
 40
1.0
 40
1.0
 40
2.0
 40
2.0
 40
2.0
 40
3.0
 40
3.0
 40
3.0
 40
4.0
 40
4.0
 40
4.0
 40
5.0
 40
5.0
 40
5.0
 40
6.0
 40
6.0
 40
6.0
 40
7.0
 40
7.0
 40
7.0
 40
7.0
 10
311.7683909101079
 20
86.79972714320866
 10
311.7683909101079
 20
86.79972714320866
 10
344.8561949951945
 20
86.79972714320866
 10
344.8561949951945
 20
86.79972714320866
 10
358.2480032338499
 20
86.79972714320866
 10
367.3064475634701
 20
82.46636323417442
 10
367.3064475634701
 20
69.3703825693483
 10
367.3064475634701
 20
62.47658000407864
 10
363.8605663759181
 20
57.65153026544067
 10
357.7542772140823
 20
54.6973349074924
 10
366.3210357140997
 20
52.23482537914788
 10
370.6543996231339
 20
45.6388905778731
 10
370.6543996231339
 20
36.87423363191374
 10
370.6543996231339
 20
22.59494267177615
 10
358.5438308076773
 20
16.49069370010511
 10
345.8395666544011
 20
16.49069370010511
 10
345.8395666544011
 20
16.49069370010511
 10
311.7683909101079
 20
16.49069370010511
 10
311.7683909101079
 20
16.49069370010511
 10
311.7683909101079
 20
16.49069370010511
 10
311.7683909101079
 20
86.79972714320866
 10
311.7683909101079
 20
86.79972714320866
 97
        0
 97
        0
 92
        1
 93
        1
 72
     4
 94
        3
 73
     0
 74
     1
 95
       20
 96
       16
 40
0.0
 40
0.0
 40
0.0
 40
0.0
 40
1.0
 40
1.0
 40
1.0
 40
2.0
 40
2.0
 40
2.0
 40
3.0
 40
3.0
 40
3.0
 40
4.0
 40
4.0
 40
4.0
 40
5.0
 40
5.0
 40
5.0
 40
5.0
 10
327.2289519753922
 20
58.34111454098456
 10
327.2289519753922
 20
58.34111454098456
 10
342.8853712964528
 20
58.34111454098456
 10
342.8853712964528
 20
58.34111454098456
 10
348.3020761827465
 20
58.34111454098456
 10
352.3396125179534
 20
60.80362406933091
 10
352.3396125179534
 20
66.7099745950618
 10
352.3396125179534
 20
73.4079189045533
 10
347.2187352054871
 20
74.78504726547544
 10
341.7041011913061
 20
74.78504726547544
 10
341.7041011913061
 20
74.78504726547544
 10
327.2289519753922
 20
74.78504726547544
 10
327.2289519753922
 20
74.78504726547544
 10
327.2289519753922
 20
74.78504726547544
 10
327.2289519753922
 20
58.34111454098456
 10
327.2289519753922
 20
58.34111454098456
 97
        0
 97
        0
 92
        1
 93
        1
 72
     4
 94
        3
 73
     0
 74
     1
 95
       20
 96
       16
 40
0.0
 40
0.0
 40
0.0
 40
0.0
 40
1.0
 40
1.0
 40
1.0
 40
2.0
 40
2.0
 40
2.0
 40
3.0
 40
3.0
 40
3.0
 40
4.0
 40
4.0
 40
4.0
 40
5.0
 40
5.0
 40
5.0
 40
5.0
 10
327.2289519753922
 20
28.50333338767268
 10
327.2289519753922
 20
28.50333338767268
 10
343.772854017936
 20
28.50333338767268
 10
343.772854017936
 20
28.50333338767268
 10
349.8771029896088
 20
28.50333338767268
 10
355.1938385578487
 20
30.47415708641529
 10
355.1938385578487
 20
37.75967616323396
 10
355.1938385578487
 20
44.94930630232921
 10
350.6646163930391
 20
47.80353234222639
 10
344.0666414015996
 20
47.80353234222639
 10
344.0666414015996
 20
47.80353234222639
 10
327.2289519753922
 20
47.80353234222639
 10
327.2289519753922
 20
47.80353234222639
 10
327.2289519753922
 20
47.80353234222639
 10
327.2289519753922
 20
28.50333338767268
 10
327.2289519753922
 20
28.50333338767268
 97
        0
 97
        0
 75
     2
 76
     1
 98
        0
  0
SPLINE
  5
8A
330
67
100
AcDbEntity
  8
Layer 1
370
     0
100
AcDbSpline
210
0.0
220
0.0
230
1.0
 70
    11
 71
     3
 72
    17
 73
    13
 74
     0
 42
0.0000000001
 43
0.0000000001
 12
1.0
 22
0.0
 32
0.0
 13
1.0
 23
0.0
 33
0.0
 40
0.0
 40
0.0
 40
0.0
 40
0.0
 40
1.0
 40
1.0
 40
1.0
 40
2.0
 40
2.0
 40
2.0
 40
3.0
 40
3.0
 40
3.0
 40
4.0
 40
4.0
 40
4.0
 40
4.0
 10
412.5905084509159
 20
88.47268307795821
 30
0.0
 10
434.3532169338123
 20
88.47268307795821
 30
0.0
 10
447.1554102149767
 20
72.22460860924184
 30
0.0
 10
447.1554102149767
 20
51.34938284782766
 30
0.0
 10
447.1554102149767
 20
31.06377204390628
 30
0.0
 10
434.3532169338123
 20
14.81569757518992
 30
0.0
 10
412.5905084509159
 20
14.81569757518992
 30
0.0
 10
390.8298401581833
 20
14.81569757518992
 30
0.0
 10
378.0276468770189
 20
31.06377204390628
 30
0.0
 10
378.0276468770189
 20
51.34938284782766
 30
0.0
 10
378.0276468770189
 20
72.22460860924184
 30
0.0
 10
390.8298401581833
 20
88.47268307795821
 30
0.0
 10
412.5905084509159
 20
88.47268307795821
 30
0.0
  0
SPLINE
  5
8B
330
67
100
AcDbEntity
  8
Layer 1
370
     0
100
AcDbSpline
210
0.0
220
0.0
230
1.0
 70
    11
 71
     3
 72
    17
 73
    13
 74
     0
 42
0.0000000001
 43
0.0000000001
 12
1.0
 22
0.0
 32
0.0
 13
1.0
 23
0.0
 33
0.0
 40
0.0
 40
0.0
 40
0.0
 40
0.0
 40
1.0
 40
1.0
 40
1.0
 40
2.0
 40
2.0
 40
2.0
 40
3.0
 40
3.0
 40
3.0
 40
4.0
 40
4.0
 40
4.0
 40
4.0
 10
412.5905084509159
 20
27.81578930229443
 30
0.0
 10
426.4760427093388
 20
27.81578930229443
 30
0.0
 10
431.6948491496914
 20
39.63053054392367
 30
0.0
 10
431.6948491496914
 20
51.34938284782766
 30
0.0
 10
431.6948491496914
 20
63.65785010922446
 30
0.0
 10
426.4760427093388
 20
75.47463154101933
 30
0.0
 10
412.5905084509159
 20
75.47463154101933
 30
0.0
 10
398.7070143826568
 20
75.47463154101933
 30
0.0
 10
393.4882079423041
 20
63.65785010922446
 30
0.0
 10
393.4882079423041
 20
51.34938284782766
 30
0.0
 10
393.4882079423041
 20
39.63053054392367
 30
0.0
 10
398.7070143826568
 20
27.81578930229443
 30
0.0
 10
412.5905084509159
 20
27.81578930229443
 30
0.0
  0
HATCH
  5
8C
330
67
100
AcDbEntity
  8
Layer 1
 62
     7
420
 16777215
100
AcDbHatch
 10
0.0
 20
0.0
 30
0.0
210
0.0
220
0.0
230
1.0
  2
SOLID
 70
     1
 71
     0
 91
        2
 92
        1
 93
        1
 72
     4
 94
        3
 73
     0
 74
     1
 95
       17
 96
       13
 40
0.0
 40
0.0
 40
0.0
 40
0.0
 40
1.0
 40
1.0
 40
1.0
 40
2.0
 40
2.0
 40
2.0
 40
3.0
 40
3.0
 40
3.0
 40
4.0
 40
4.0
 40
4.0
 40
4.0
 10
412.5905084509159
 20
88.47268307795821
 10
434.3532169338123
 20
88.47268307795821
 10
447.1554102149767
 20
72.22460860924184
 10
447.1554102149767
 20
51.34938284782766
 10
447.1554102149767
 20
31.06377204390628
 10
434.3532169338123
 20
14.81569757518992
 10
412.5905084509159
 20
14.81569757518992
 10
390.8298401581833
 20
14.81569757518992
 10
378.0276468770189
 20
31.06377204390628
 10
378.0276468770189
 20
51.34938284782766
 10
378.0276468770189
 20
72.22460860924184
 10
390.8298401581833
 20
88.47268307795821
 10
412.5905084509159
 20
88.47268307795821
 97
        0
 97
        0
 92
        1
 93
        1
 72
     4
 94
        3
 73
     0
 74
     1
 95
       17
 96
       13
 40
0.0
 40
0.0
 40
0.0
 40
0.0
 40
1.0
 40
1.0
 40
1.0
 40
2.0
 40
2.0
 40
2.0
 40
3.0
 40
3.0
 40
3.0
 40
4.0
 40
4.0
 40
4.0
 40
4.0
 10
412.5905084509159
 20
27.81578930229443
 10
426.4760427093388
 20
27.81578930229443
 10
431.6948491496914
 20
39.63053054392367
 10
431.6948491496914
 20
51.34938284782766
 10
431.6948491496914
 20
63.65785010922446
 10
426.4760427093388
 20
75.47463154101933
 10
412.5905084509159
 20
75.47463154101933
 10
398.7070143826568
 20
75.47463154101933
 10
393.4882079423041
 20
63.65785010922446
 10
393.4882079423041
 20
51.34938284782766
 10
393.4882079423041
 20
39.63053054392367
 10
398.7070143826568
 20
27.81578930229443
 10
412.5905084509159
 20
27.81578930229443
 97
        0
 97
        0
 75
     2
 76
     1
 98
        0
  0
POLYLINE
  5
8D
330
67
100
AcDbEntity
  8
Layer 1
370
     0
100
AcDb2dPolyline
 66
     1
 10
0.0
 20
0.0
 30
0.0
  0
VERTEX
  5
8E
330
8D
100
AcDbEntity
  8
Layer 1
370
     0
100
AcDbVertex
100
AcDb2dVertex
 10
476.880980909249
 20
86.79972714320866
 30
0.0
  0
VERTEX
  5
8F
330
8D
100
AcDbEntity
  8
Layer 1
370
     0
100
AcDbVertex
100
AcDb2dVertex
 10
492.7352986762489
 20
86.79972714320866
 30
0.0
  0
VERTEX
  5
90
330
8D
100
AcDbEntity
  8
Layer 1
370
     0
100
AcDbVertex
100
AcDb2dVertex
 10
519.0272293239577
 20
16.49069370010511
 30
0.0
  0
VERTEX
  5
91
330
8D
100
AcDbEntity
  8
Layer 1
370
     0
100
AcDbVertex
100
AcDb2dVertex
 10
502.9770533011815
 20
16.49069370010511
 30
0.0
  0
VERTEX
  5
92
330
8D
100
AcDbEntity
  8
Layer 1
370
     0
100
AcDbVertex
100
AcDb2dVertex
 10
497.658277542776
 20
32.14711302116484
 30
0.0
  0
VERTEX
  5
93
330
8D
100
AcDbEntity
  8
Layer 1
370
     0
100
AcDbVertex
100
AcDb2dVertex
 10
471.366346895069
 20
32.14711302116484
 30
0.0
  0
VERTEX
  5
94
330
8D
100
AcDbEntity
  8
Layer 1
370
     0
100
AcDbVertex
100
AcDb2dVertex
 10
465.8517128808871
 20
16.49069370010511
 30
0.0
  0
VERTEX
  5
95
330
8D
100
AcDbEntity
  8
Layer 1
370
     0
100
AcDbVertex
100
AcDb2dVertex
 10
450.1952935598274
 20
16.49069370010511
 30
0.0
  0
VERTEX
  5
96
330
8D
100
AcDbEntity
  8
Layer 1
370
     0
100
AcDbVertex
100
AcDb2dVertex
 10
476.880980909249
 20
86.79972714320866
 30
0.0
  0
SEQEND
  5
97
330
8D
100
AcDbEntity
  8
Layer 1
370
     0
  0
POLYLINE
  5
98
330
67
100
AcDbEntity
  8
Layer 1
370
     0
100
AcDb2dPolyline
 66
     1
 10
0.0
 20
0.0
 30
0.0
  0
VERTEX
  5
99
330
98
100
AcDbEntity
  8
Layer 1
370
     0
100
AcDbVertex
100
AcDb2dVertex
 10
475.4038832302749
 20
43.66806687913049
 30
0.0
  0
VERTEX
  5
9A
330
98
100
AcDbEntity
  8
Layer 1
370
     0
100
AcDbVertex
100
AcDb2dVertex
 10
493.6207412075692
 20
43.66806687913049
 30
0.0
  0
VERTEX
  5
9B
330
98
100
AcDbEntity
  8
Layer 1
370
     0
100
AcDbVertex
100
AcDb2dVertex
 10
484.7581551337225
 20
69.46831169723555
 30
0.0
  0
VERTEX
  5
9C
330
98
100
AcDbEntity
  8
Layer 1
370
     0
100
AcDbVertex
100
AcDb2dVertex
 10
484.5622968779462
 20
69.46831169723555
 30
0.0
  0
VERTEX
  5
9D
330
98
100
AcDbEntity
  8
Layer 1
370
     0
100
AcDbVertex
100
AcDb2dVertex
 10
475.4038832302749
 20
43.66806687913049
 30
0.0
  0
SEQEND
  5
9E
330
98
100
AcDbEntity
  8
Layer 1
370
     0
  0
HATCH
  5
9F
330
67
100
AcDbEntity
  8
Layer 1
 62
     7
420
 16777215
100
AcDbHatch
 10
0.0
 20
0.0
 30
0.0
210
0.0
220
0.0
230
1.0
  2
SOLID
 70
     1
 71
     0
 91
        2
 92
        1
 93
        8
 72
     1
 10
476.880980909249
 20
86.79972714320866
 11
492.7352986762489
 21
86.79972714320866
 72
     1
 10
492.7352986762489
 20
86.79972714320866
 11
519.0272293239577
 21
16.49069370010511
 72
     1
 10
519.0272293239577
 20
16.49069370010511
 11
502.9770533011815
 21
16.49069370010511
 72
     1
 10
502.9770533011815
 20
16.49069370010511
 11
497.658277542776
 21
32.14711302116484
 72
     1
 10
497.658277542776
 20
32.14711302116484
 11
471.366346895069
 21
32.14711302116484
 72
     1
 10
471.366346895069
 20
32.14711302116484
 11
465.8517128808871
 21
16.49069370010511
 72
     1
 10
465.8517128808871
 20
16.49069370010511
 11
450.1952935598274
 21
16.49069370010511
 72
     1
 10
450.1952935598274
 20
16.49069370010511
 11
476.880980909249
 21
86.79972714320866
 97
        0
 92
        1
 93
        4
 72
     1
 10
475.4038832302749
 20
43.66806687913049
 11
493.6207412075692
 21
43.66806687913049
 72
     1
 10
493.6207412075692
 20
43.66806687913049
 11
484.7581551337225
 21
69.46831169723555
 72
     1
 10
484.7581551337225
 20
69.46831169723555
 11
484.5622968779462
 21
69.46831169723555
 72
     1
 10
484.5622968779462
 20
69.46831169723555
 11
475.4038832302749
 21
43.66806687913049
 97
        0
 75
     2
 76
     1
 98
        0
  0
SPLINE
  5
A0
330
67
100
AcDbEntity
  8
Layer 1
370
     0
100
AcDbSpline
210
0.0
220
0.0
230
1.0
 70
    11
 71
     3
 72
    44
 73
    40
 74
     0
 42
0.0000000001
 43
0.0000000001
 12
1.0
 22
0.0
 32
0.0
 13
1.0
 23
0.0
 33
0.0
 40
0.0
 40
0.0
 40
0.0
 40
0.0
 40
1.0
 40
1.0
 40
1.0
 40
2.0
 40
2.0
 40
2.0
 40
3.0
 40
3.0
 40
3.0
 40
4.0
 40
4.0
 40
4.0
 40
5.0
 40
5.0
 40
5.0
 40
6.0
 40
6.0
 40
6.0
 40
7.0
 40
7.0
 40
7.0
 40
8.0
 40
8.0
 40
8.0
 40
9.0
 40
9.0
 40
9.0
 40
10.0
 40
10.0
 40
10.0
 40
11.0
 40
11.0
 40
11.0
 40
12.0
 40
12.0
 40
12.0
 40
13.0
 40
13.0
 40
13.0
 40
13.0
 10
525.1192371546422
 20
86.79972714320866
 30
0.0
 10
525.1192371546422
 20
86.79972714320866
 30
0.0
 10
563.0320909783677
 20
86.79972714320866
 30
0.0
 10
563.0320909783677
 20
86.79972714320866
 30
0.0
 10
575.6363858135937
 20
86.79972714320866
 30
0.0
 10
583.6114891659545
 20
78.03507019725112
 30
0.0
 10
583.6114891659545
 20
67.39955887060387
 30
0.0
 10
583.6114891659545
 20
59.12862794441571
 30
0.0
 10
580.2635371062897
 20
52.92440965469177
 30
0.0
 10
572.4842920097035
 20
49.77435604096718
 30
0.0
 10
572.4842920097035
 20
49.77435604096718
 30
0.0
 10
572.4842920097035
 20
49.57645759502884
 30
0.0
 10
572.4842920097035
 20
49.57645759502884
 30
0.0
 10
580.0676788505134
 20
47.60767408645006
 30
0.0
 10
582.2323206148685
 20
40.22218569157849
 30
0.0
 10
582.7260466346361
 20
33.13252487053614
 30
0.0
 10
583.0218742084617
 20
28.70123183361284
 30
0.0
 10
582.9219048904106
 20
20.43030090742286
 30
0.0
 10
585.6802419925843
 20
16.49069370010511
 30
0.0
 10
585.6802419925843
 20
16.49069370010511
 30
0.0
 10
570.2196809272991
 20
16.49069370010511
 30
0.0
 10
570.2196809272991
 20
16.49069370010511
 30
0.0
 10
568.3488265466094
 20
20.92198673702842
 30
0.0
 10
568.5446848023857
 20
27.71581998424335
 30
0.0
 10
567.7571713989546
 20
33.32838312631065
 30
0.0
 10
566.673830421696
 20
40.71387152118223
 30
0.0
 10
563.8196043817989
 20
43.96389445295972
 30
0.0
 10
556.0403592852126
 20
43.96389445295972
 30
0.0
 10
556.0403592852126
 20
43.96389445295972
 30
0.0
 10
540.5797982199292
 20
43.96389445295972
 30
0.0
 10
540.5797982199292
 20
43.96389445295972
 30
0.0
 10
540.5797982199292
 20
43.96389445295972
 30
0.0
 10
540.5797982199292
 20
16.49069370010511
 30
0.0
 10
540.5797982199292
 20
16.49069370010511
 30
0.0
 10
540.5797982199292
 20
16.49069370010511
 30
0.0
 10
525.1192371546422
 20
16.49069370010511
 30
0.0
 10
525.1192371546422
 20
16.49069370010511
 30
0.0
 10
525.1192371546422
 20
16.49069370010511
 30
0.0
 10
525.1192371546422
 20
86.79972714320866
 30
0.0
 10
525.1192371546422
 20
86.79972714320866
 30
0.0
  0
SPLINE
  5
A1
330
67
100
AcDbEntity
  8
Layer 1
370
     0
100
AcDbSpline
210
0.0
220
0.0
230
1.0
 70
    11
 71
     3
 72
    20
 73
    16
 74
     0
 42
0.0000000001
 43
0.0000000001
 12
1.0
 22
0.0
 32
0.0
 13
1.0
 23
0.0
 33
0.0
 40
0.0
 40
0.0
 40
0.0
 40
0.0
 40
1.0
 40
1.0
 40
1.0
 40
2.0
 40
2.0
 40
2.0
 40
3.0
 40
3.0
 40
3.0
 40
4.0
 40
4.0
 40
4.0
 40
5.0
 40
5.0
 40
5.0
 40
5.0
 10
540.5797982199292
 20
54.99316248131981
 30
0.0
 10
540.5797982199292
 20
54.99316248131981
 30
0.0
 10
557.5174569641877
 20
54.99316248131981
 30
0.0
 10
557.5174569641877
 20
54.99316248131981
 30
0.0
 10
564.4092193392898
 20
54.99316248131981
 30
0.0
 10
568.1509281006693
 20
57.94735783926808
 30
0.0
 10
568.1509281006693
 20
65.03701866031224
 30
0.0
 10
568.1509281006693
 20
71.83085190752718
 30
0.0
 10
564.4092193392898
 20
74.78504726547544
 30
0.0
 10
557.5174569641877
 20
74.78504726547544
 30
0.0
 10
557.5174569641877
 20
74.78504726547544
 30
0.0
 10
540.5797982199292
 20
74.78504726547544
 30
0.0
 10
540.5797982199292
 20
74.78504726547544
 30
0.0
 10
540.5797982199292
 20
74.78504726547544
 30
0.0
 10
540.5797982199292
 20
54.99316248131981
 30
0.0
 10
540.5797982199292
 20
54.99316248131981
 30
0.0
  0
HATCH
  5
A2
330
67
100
AcDbEntity
  8
Layer 1
 62
     7
420
 16777215
100
AcDbHatch
 10
0.0
 20
0.0
 30
0.0
210
0.0
220
0.0
230
1.0
  2
SOLID
 70
     1
 71
     0
 91
        2
 92
        1
 93
        1
 72
     4
 94
        3
 73
     0
 74
     1
 95
       44
 96
       40
 40
0.0
 40
0.0
 40
0.0
 40
0.0
 40
1.0
 40
1.0
 40
1.0
 40
2.0
 40
2.0
 40
2.0
 40
3.0
 40
3.0
 40
3.0
 40
4.0
 40
4.0
 40
4.0
 40
5.0
 40
5.0
 40
5.0
 40
6.0
 40
6.0
 40
6.0
 40
7.0
 40
7.0
 40
7.0
 40
8.0
 40
8.0
 40
8.0
 40
9.0
 40
9.0
 40
9.0
 40
10.0
 40
10.0
 40
10.0
 40
11.0
 40
11.0
 40
11.0
 40
12.0
 40
12.0
 40
12.0
 40
13.0
 40
13.0
 40
13.0
 40
13.0
 10
525.1192371546422
 20
86.79972714320866
 10
525.1192371546422
 20
86.79972714320866
 10
563.0320909783677
 20
86.79972714320866
 10
563.0320909783677
 20
86.79972714320866
 10
575.6363858135937
 20
86.79972714320866
 10
583.6114891659545
 20
78.03507019725112
 10
583.6114891659545
 20
67.39955887060387
 10
583.6114891659545
 20
59.12862794441571
 10
580.2635371062897
 20
52.92440965469177
 10
572.4842920097035
 20
49.77435604096718
 10
572.4842920097035
 20
49.77435604096718
 10
572.4842920097035
 20
49.57645759502884
 10
572.4842920097035
 20
49.57645759502884
 10
580.0676788505134
 20
47.60767408645006
 10
582.2323206148685
 20
40.22218569157849
 10
582.7260466346361
 20
33.13252487053614
 10
583.0218742084617
 20
28.70123183361284
 10
582.9219048904106
 20
20.43030090742286
 10
585.6802419925843
 20
16.49069370010511
 10
585.6802419925843
 20
16.49069370010511
 10
570.2196809272991
 20
16.49069370010511
 10
570.2196809272991
 20
16.49069370010511
 10
568.3488265466094
 20
20.92198673702842
 10
568.5446848023857
 20
27.71581998424335
 10
567.7571713989546
 20
33.32838312631065
 10
566.673830421696
 20
40.71387152118223
 10
563.8196043817989
 20
43.96389445295972
 10
556.0403592852126
 20
43.96389445295972
 10
556.0403592852126
 20
43.96389445295972
 10
540.5797982199292
 20
43.96389445295972
 10
540.5797982199292
 20
43.96389445295972
 10
540.5797982199292
 20
43.96389445295972
 10
540.5797982199292
 20
16.49069370010511
 10
540.5797982199292
 20
16.49069370010511
 10
540.5797982199292
 20
16.49069370010511
 10
525.1192371546422
 20
16.49069370010511
 10
525.1192371546422
 20
16.49069370010511
 10
525.1192371546422
 20
16.49069370010511
 10
525.1192371546422
 20
86.79972714320866
 10
525.1192371546422
 20
86.79972714320866
 97
        0
 97
        0
 92
        1
 93
        1
 72
     4
 94
        3
 73
     0
 74
     1
 95
       20
 96
       16
 40
0.0
 40
0.0
 40
0.0
 40
0.0
 40
1.0
 40
1.0
 40
1.0
 40
2.0
 40
2.0
 40
2.0
 40
3.0
 40
3.0
 40
3.0
 40
4.0
 40
4.0
 40
4.0
 40
5.0
 40
5.0
 40
5.0
 40
5.0
 10
540.5797982199292
 20
54.99316248131981
 10
540.5797982199292
 20
54.99316248131981
 10
557.5174569641877
 20
54.99316248131981
 10
557.5174569641877
 20
54.99316248131981
 10
564.4092193392898
 20
54.99316248131981
 10
568.1509281006693
 20
57.94735783926808
 10
568.1509281006693
 20
65.03701866031224
 10
568.1509281006693
 20
71.83085190752718
 10
564.4092193392898
 20
74.78504726547544
 10
557.5174569641877
 20
74.78504726547544
 10
557.5174569641877
 20
74.78504726547544
 10
540.5797982199292
 20
74.78504726547544
 10
540.5797982199292
 20
74.78504726547544
 10
540.5797982199292
 20
74.78504726547544
 10
540.5797982199292
 20
54.99316248131981
 10
540.5797982199292
 20
54.99316248131981
 97
        0
 97
        0
 75
     2
 76
     1
 98
        0
  0
SPLINE
  5
A3
330
67
100
AcDbEntity
  8
Layer 1
370
     0
100
AcDbSpline
210
0.0
220
0.0
230
1.0
 70
    11
 71
     3
 72
    20
 73
    16
 74
     0
 42
0.0000000001
 43
0.0000000001
 12
1.0
 22
0.0
 32
0.0
 13
1.0
 23
0.0
 33
0.0
 40
0.0
 40
0.0
 40
0.0
 40
0.0
 40
1.0
 40
1.0
 40
1.0
 40
2.0
 40
2.0
 40
2.0
 40
3.0
 40
3.0
 40
3.0
 40
4.0
 40
4.0
 40
4.0
 40
5.0
 40
5.0
 40
5.0
 40
5.0
 10
596.2035428601939
 20
86.79972714320866
 30
0.0
 10
596.2035428601939
 20
86.79972714320866
 30
0.0
 10
626.5330098431059
 20
86.79972714320866
 30
0.0
 10
626.5330098431059
 20
86.79972714320866
 30
0.0
 10
644.7498678203992
 20
86.79972714320866
 30
0.0
 10
658.4375036328838
 20
75.37670241313208
 30
0.0
 10
658.4375036328838
 20
52.03896712337155
 30
0.0
 10
658.4375036328838
 20
31.6554271915611
 30
0.0
 10
647.9998907521767
 20
16.49069370010511
 30
0.0
 10
626.5330098431059
 20
16.49069370010511
 30
0.0
 10
626.5330098431059
 20
16.49069370010511
 30
0.0
 10
596.2035428601939
 20
16.49069370010511
 30
0.0
 10
596.2035428601939
 20
16.49069370010511
 30
0.0
 10
596.2035428601939
 20
16.49069370010511
 30
0.0
 10
596.2035428601939
 20
86.79972714320866
 30
0.0
 10
596.2035428601939
 20
86.79972714320866
 30
0.0
  0
SPLINE
  5
A4
330
67
100
AcDbEntity
  8
Layer 1
370
     0
100
AcDbSpline
210
0.0
220
0.0
230
1.0
 70
    11
 71
     3
 72
    20
 73
    16
 74
     0
 42
0.0000000001
 43
0.0000000001
 12
1.0
 22
0.0
 32
0.0
 13
1.0
 23
0.0
 33
0.0
 40
0.0
 40
0.0
 40
0.0
 40
0.0
 40
1.0
 40
1.0
 40
1.0
 40
2.0
 40
2.0
 40
2.0
 40
3.0
 40
3.0
 40
3.0
 40
4.0
 40
4.0
 40
4.0
 40
5.0
 40
5.0
 40
5.0
 40
5.0
 10
611.6641039254773
 20
29.4887452370458
 30
0.0
 10
611.6641039254773
 20
29.4887452370458
 30
0.0
 10
625.4496688658473
 20
29.4887452370458
 30
0.0
 10
625.4496688658473
 20
29.4887452370458
 30
0.0
 10
634.4101840675812
 20
29.4887452370458
 30
0.0
 10
642.9789827577624
 20
35.00337925122403
 30
0.0
 10
642.9789827577624
 20
50.56186944439833
 30
0.0
 10
642.9789827577624
 20
64.74119108648301
 30
0.0
 10
638.0539637010716
 20
73.80167560626796
 30
0.0
 10
622.693371953841
 20
73.80167560626796
 30
0.0
 10
622.693371953841
 20
73.80167560626796
 30
0.0
 10
611.6641039254773
 20
73.80167560626796
 30
0.0
 10
611.6641039254773
 20
73.80167560626796
 30
0.0
 10
611.6641039254773
 20
73.80167560626796
 30
0.0
 10
611.6641039254773
 20
29.4887452370458
 30
0.0
 10
611.6641039254773
 20
29.4887452370458
 30
0.0
  0
HATCH
  5
A5
330
67
100
AcDbEntity
  8
Layer 1
 62
     7
420
 16777215
100
AcDbHatch
 10
0.0
 20
0.0
 30
0.0
210
0.0
220
0.0
230
1.0
  2
SOLID
 70
     1
 71
     0
 91
        2
 92
        1
 93
        1
 72
     4
 94
        3
 73
     0
 74
     1
 95
       20
 96
       16
 40
0.0
 40
0.0
 40
0.0
 40
0.0
 40
1.0
 40
1.0
 40
1.0
 40
2.0
 40
2.0
 40
2.0
 40
3.0
 40
3.0
 40
3.0
 40
4.0
 40
4.0
 40
4.0
 40
5.0
 40
5.0
 40
5.0
 40
5.0
 10
596.2035428601939
 20
86.79972714320866
 10
596.2035428601939
 20
86.79972714320866
 10
626.5330098431059
 20
86.79972714320866
 10
626.5330098431059
 20
86.79972714320866
 10
644.7498678203992
 20
86.79972714320866
 10
658.4375036328838
 20
75.37670241313208
 10
658.4375036328838
 20
52.03896712337155
 10
658.4375036328838
 20
31.6554271915611
 10
647.9998907521767
 20
16.49069370010511
 10
626.5330098431059
 20
16.49069370010511
 10
626.5330098431059
 20
16.49069370010511
 10
596.2035428601939
 20
16.49069370010511
 10
596.2035428601939
 20
16.49069370010511
 10
596.2035428601939
 20
16.49069370010511
 10
596.2035428601939
 20
86.79972714320866
 10
596.2035428601939
 20
86.79972714320866
 97
        0
 97
        0
 92
        1
 93
        1
 72
     4
 94
        3
 73
     0
 74
     1
 95
       20
 96
       16
 40
0.0
 40
0.0
 40
0.0
 40
0.0
 40
1.0
 40
1.0
 40
1.0
 40
2.0
 40
2.0
 40
2.0
 40
3.0
 40
3.0
 40
3.0
 40
4.0
 40
4.0
 40
4.0
 40
5.0
 40
5.0
 40
5.0
 40
5.0
 10
611.6641039254773
 20
29.4887452370458
 10
611.6641039254773
 20
29.4887452370458
 10
625.4496688658473
 20
29.4887452370458
 10
625.4496688658473
 20
29.4887452370458
 10
634.4101840675812
 20
29.4887452370458
 10
642.9789827577624
 20
35.00337925122403
 10
642.9789827577624
 20
50.56186944439833
 10
642.9789827577624
 20
64.74119108648301
 10
638.0539637010716
 20
73.80167560626796
 10
622.693371953841
 20
73.80167560626796
 10
622.693371953841
 20
73.80167560626796
 10
611.6641039254773
 20
73.80167560626796
 10
611.6641039254773
 20
73.80167560626796
 10
611.6641039254773
 20
73.80167560626796
 10
611.6641039254773
 20
29.4887452370458
 10
611.6641039254773
 20
29.4887452370458
 97
        0
 97
        0
 75
     2
 76
     1
 98
        0
  0
SPLINE
  5
A6
330
67
100
AcDbEntity
  8
Layer 1
370
     0
100
AcDbSpline
210
0.0
220
0.0
230
1.0
 70
    11
 71
     3
 72
    47
 73
    43
 74
     0
 42
0.0000000001
 43
0.0000000001
 12
1.0
 22
0.0
 32
0.0
 13
1.0
 23
0.0
 33
0.0
 40
0.0
 40
0.0
 40
0.0
 40
0.0
 40
1.0
 40
1.0
 40
1.0
 40
2.0
 40
2.0
 40
2.0
 40
3.0
 40
3.0
 40
3.0
 40
4.0
 40
4.0
 40
4.0
 40
5.0
 40
5.0
 40
5.0
 40
6.0
 40
6.0
 40
6.0
 40
7.0
 40
7.0
 40
7.0
 40
8.0
 40
8.0
 40
8.0
 40
9.0
 40
9.0
 40
9.0
 40
10.0
 40
10.0
 40
10.0
 40
11.0
 40
11.0
 40
11.0
 40
12.0
 40
12.0
 40
12.0
 40
13.0
 40
13.0
 40
13.0
 40
14.0
 40
14.0
 40
14.0
 40
14.0
 10
679.6962851451899
 20
39.828428989862
 30
0.0
 10
679.6962851451899
 20
30.47415708641529
 30
0.0
 10
686.9818042220086
 20
26.83037745292313
 30
0.0
 10
695.2547753383624
 20
26.83037745292313
 30
0.0
 10
700.6694400344932
 20
26.83037745292313
 30
0.0
 10
708.942411150847
 20
28.40540425978543
 30
0.0
 10
708.942411150847
 20
35.59503439888067
 30
0.0
 10
708.942411150847
 20
43.17638104952675
 30
0.0
 10
698.404828952087
 20
44.45558028256164
 30
0.0
 10
688.0651451992671
 20
47.21391738473358
 30
0.0
 10
677.6275323185619
 20
49.97021429674351
 30
0.0
 10
667.0919903099657
 20
54.00775063194851
 30
0.0
 10
667.0919903099657
 20
67.20370061482936
 30
0.0
 10
667.0919903099657
 20
81.5809207028542
 30
0.0
 10
680.6796568043974
 20
88.47268307795821
 30
0.0
 10
693.3839209576727
 20
88.47268307795821
 30
0.0
 10
708.0549284293629
 20
88.47268307795821
 30
0.0
 10
721.5467059860712
 20
82.07260653245976
 30
0.0
 10
721.5467059860712
 20
65.82453206374339
 30
0.0
 10
721.5467059860712
 20
65.82453206374339
 30
0.0
 10
706.5778307503897
 20
65.82453206374339
 30
0.0
 10
706.5778307503897
 20
65.82453206374339
 30
0.0
 10
706.086144920786
 20
74.29336143587352
 30
0.0
 10
700.0798250770004
 20
76.46004339039064
 30
0.0
 10
692.6943366821306
 20
76.46004339039064
 30
0.0
 10
687.7713578156054
 20
76.46004339039064
 30
0.0
 10
682.0588253554833
 20
74.39129056376078
 30
0.0
 10
682.0588253554833
 20
68.48289984786243
 30
0.0
 10
682.0588253554833
 20
63.06823515173528
 30
0.0
 10
685.4067774151481
 20
62.37865087619139
 30
0.0
 10
703.0340204349486
 20
57.84942871138264
 30
0.0
 10
708.1548977474158
 20
56.56818928818211
 30
0.0
 10
723.9092461963628
 20
53.31816635640644
 30
0.0
 10
723.9092461963628
 20
37.3659194615193
 30
0.0
 10
723.9092461963628
 20
24.4678372426315
 30
0.0
 10
713.7674608894849
 20
14.81569757518992
 30
0.0
 10
694.6631201907076
 20
14.81569757518992
 30
0.0
 10
679.1046299975351
 20
14.81569757518992
 30
0.0
 10
664.5315516537339
 20
22.4970135438889
 30
0.0
 10
664.7274099095084
 20
39.828428989862
 30
0.0
 10
664.7274099095084
 20
39.828428989862
 30
0.0
 10
679.6962851451899
 20
39.828428989862
 30
0.0
 10
679.6962851451899
 20
39.828428989862
 30
0.0
  0
HATCH
  5
A7
330
67
100
AcDbEntity
  8
Layer 1
 62
     7
420
 16777215
100
AcDbHatch
 10
0.0
 20
0.0
 30
0.0
210
0.0
220
0.0
230
1.0
  2
SOLID
 70
     1
 71
     0
 91
        1
 92
        1
 93
        1
 72
     4
 94
        3
 73
     0
 74
     1
 95
       47
 96
       43
 40
0.0
 40
0.0
 40
0.0
 40
0.0
 40
1.0
 40
1.0
 40
1.0
 40
2.0
 40
2.0
 40
2.0
 40
3.0
 40
3.0
 40
3.0
 40
4.0
 40
4.0
 40
4.0
 40
5.0
 40
5.0
 40
5.0
 40
6.0
 40
6.0
 40
6.0
 40
7.0
 40
7.0
 40
7.0
 40
8.0
 40
8.0
 40
8.0
 40
9.0
 40
9.0
 40
9.0
 40
10.0
 40
10.0
 40
10.0
 40
11.0
 40
11.0
 40
11.0
 40
12.0
 40
12.0
 40
12.0
 40
13.0
 40
13.0
 40
13.0
 40
14.0
 40
14.0
 40
14.0
 40
14.0
 10
679.6962851451899
 20
39.828428989862
 10
679.6962851451899
 20
30.47415708641529
 10
686.9818042220086
 20
26.83037745292313
 10
695.2547753383624
 20
26.83037745292313
 10
700.6694400344932
 20
26.83037745292313
 10
708.942411150847
 20
28.40540425978543
 10
708.942411150847
 20
35.59503439888067
 10
708.942411150847
 20
43.17638104952675
 10
698.404828952087
 20
44.45558028256164
 10
688.0651451992671
 20
47.21391738473358
 10
677.6275323185619
 20
49.97021429674351
 10
667.0919903099657
 20
54.00775063194851
 10
667.0919903099657
 20
67.20370061482936
 10
667.0919903099657
 20
81.5809207028542
 10
680.6796568043974
 20
88.47268307795821
 10
693.3839209576727
 20
88.47268307795821
 10
708.0549284293629
 20
88.47268307795821
 10
721.5467059860712
 20
82.07260653245976
 10
721.5467059860712
 20
65.82453206374339
 10
721.5467059860712
 20
65.82453206374339
 10
706.5778307503897
 20
65.82453206374339
 10
706.5778307503897
 20
65.82453206374339
 10
706.086144920786
 20
74.29336143587352
 10
700.0798250770004
 20
76.46004339039064
 10
692.6943366821306
 20
76.46004339039064
 10
687.7713578156054
 20
76.46004339039064
 10
682.0588253554833
 20
74.39129056376078
 10
682.0588253554833
 20
68.48289984786243
 10
682.0588253554833
 20
63.06823515173528
 10
685.4067774151481
 20
62.37865087619139
 10
703.0340204349486
 20
57.84942871138264
 10
708.1548977474158
 20
56.56818928818211
 10
723.9092461963628
 20
53.31816635640644
 10
723.9092461963628
 20
37.3659194615193
 10
723.9092461963628
 20
24.4678372426315
 10
713.7674608894849
 20
14.81569757518992
 10
694.6631201907076
 20
14.81569757518992
 10
679.1046299975351
 20
14.81569757518992
 10
664.5315516537339
 20
22.4970135438889
 10
664.7274099095084
 20
39.828428989862
 10
664.7274099095084
 20
39.828428989862
 10
679.6962851451899
 20
39.828428989862
 10
679.6962851451899
 20
39.828428989862
 97
        0
 97
        0
 75
     2
 76
     1
 98
        0
  0
ENDBLK
  5
6A
330
67
100
AcDbEntity
  8
0
100
AcDbBlockEnd
  0
ENDSEC
  0
SECTION
  2
ENTITIES
  0
INSERT
  5
42
330
1F
100
AcDbEntity
  8
Layer 1
100
AcDbBlockReference
  2
block 2
 10
0.0
 20
0.0
 30
0.0
  0
ENDSEC
  0
SECTION
  2
OBJECTS
  0
DICTIONARY
  5
C
330
0
100
AcDbDictionary
281
     1
  3
ACAD_GROUP
350
D
  3
ACAD_LAYOUT
350
1A
  3
ACAD_MATERIAL
350
3B
  3
ACAD_MLEADERSTYLE
350
A9
  3
ACAD_MLINESTYLE
350
17
  3
ACAD_PLOTSETTINGS
350
19
  3
ACAD_PLOTSTYLENAME
350
E
  3
ACAD_TABLESTYLE
350
A8
  3
ACAD_VISUALSTYLE
350
2A
  0
SUN
  5
3F
330
29
100
AcDbSun
 90
        1
290
     0
 63
     7
421
 16777215
 40
1.0
291
     1
 91
  2455826
 92
 54000000
292
     0
 70
     2
 71
   256
280
     1
  0
DICTIONARY
  5
D
102
{ACAD_REACTORS
330
C
102
}
330
C
100
AcDbDictionary
281
     1
  0
DICTIONARY
  5
1A
102
{ACAD_REACTORS
330
C
102
}
330
C
100
AcDbDictionary
281
     1
  3
Layout1
350
1E
  3
Layout2
350
26
  3
Model
350
22
  0
DICTIONARY
  5
3B
102
{ACAD_REACTORS
330
C
102
}
330
C
100
AcDbDictionary
281
     1
  3
ByBlock
350
3D
  3
ByLayer
350
3C
  3
Global
350
3E
  0
DICTIONARY
  5
A9
102
{ACAD_REACTORS
330
C
102
}
330
C
100
AcDbDictionary
281
     1
  0
DICTIONARY
  5
17
102
{ACAD_REACTORS
330
C
102
}
330
C
100
AcDbDictionary
281
     1
  3
Standard
350
18
  0
DICTIONARY
  5
19
102
{ACAD_REACTORS
330
C
102
}
330
C
100
AcDbDictionary
281
     1
  0
ACDBDICTIONARYWDFLT
  5
E
102
{ACAD_REACTORS
330
C
102
}
330
C
100
AcDbDictionary
281
     1
  3
Normal
350
F
100
AcDbDictionaryWithDefault
340
F
  0
DICTIONARY
  5
A8
102
{ACAD_REACTORS
330
C
102
}
330
C
100
AcDbDictionary
281
     1
  0
DICTIONARY
  5
2A
102
{ACAD_REACTORS
330
C
102
}
330
C
100
AcDbDictionary
281
     1
  3
2dWireframe
350
2F
  3
3D Hidden
350
31
  3
3dWireframe
350
30
  3
Basic
350
32
  3
Brighten
350
36
  3
ColorChange
350
3A
  3
Conceptual
350
34
  3
Dim
350
35
  3
Facepattern
350
39
  3
Flat
350
2B
  3
FlatWithEdges
350
2C
  3
Gouraud
350
2D
  3
GouraudWithEdges
350
2E
  3
Linepattern
350
38
  3
Realistic
350
33
  3
Thicken
350
37
  0
LAYOUT
  5
1E
102
{ACAD_REACTORS
330
1A
102
}
330
1A
100
AcDbPlotSettings
  1

  2
none_device
  4

  6

 40
0.0
 41
0.0
 42
0.0
 43
0.0
 44
0.0
 45
0.0
 46
0.0
 47
0.0
 48
0.0
 49
0.0
140
0.0
141
0.0
142
1.0
143
1.0
 70
   688
 72
     0
 73
     0
 74
     5
  7

 75
    16
 76
     0
 77
     2
 78
   300
147
1.0
148
0.0
149
0.0
100
AcDbLayout
  1
Layout1
 70
     1
 71
     1
 10
0.0
 20
0.0
 11
12.0
 21
9.0
 12
0.0
 22
0.0
 32
0.0
 14
1.000000000000000E+20
 24
1.000000000000000E+20
 34
1.000000000000000E+20
 15
-1.000000000000000E+20
 25
-1.000000000000000E+20
 35
-1.000000000000000E+20
146
0.0
 13
0.0
 23
0.0
 33
0.0
 16
1.0
 26
0.0
 36
0.0
 17
0.0
 27
1.0
 37
0.0
 76
     0
330
1B
  0
LAYOUT
  5
26
102
{ACAD_REACTORS
330
1A
102
}
330
1A
100
AcDbPlotSettings
  1

  2
none_device
  4

  6

 40
0.0
 41
0.0
 42
0.0
 43
0.0
 44
0.0
 45
0.0
 46
0.0
 47
0.0
 48
0.0
 49
0.0
140
0.0
141
0.0
142
1.0
143
1.0
 70
   688
 72
     0
 73
     0
 74
     5
  7

 75
    16
 76
     0
 77
     2
 78
   300
147
1.0
148
0.0
149
0.0
100
AcDbLayout
  1
Layout2
 70
     1
 71
     2
 10
0.0
 20
0.0
 11
0.0
 21
0.0
 12
0.0
 22
0.0
 32
0.0
 14
0.0
 24
0.0
 34
0.0
 15
0.0
 25
0.0
 35
0.0
146
0.0
 13
0.0
 23
0.0
 33
0.0
 16
1.0
 26
0.0
 36
0.0
 17
0.0
 27
1.0
 37
0.0
 76
     0
330
23
  0
LAYOUT
  5
22
102
{ACAD_REACTORS
330
1A
102
}
330
1A
100
AcDbPlotSettings
  1

  2
none_device
  4

  6

 40
0.0
 41
0.0
 42
0.0
 43
0.0
 44
0.0
 45
0.0
 46
0.0
 47
0.0
 48
0.0
 49
0.0
140
0.0
141
0.0
142
1.0
143
1.0
 70
  1712
 72
     0
 73
     0
 74
     0
  7

 75
     0
 76
     0
 77
     2
 78
   300
147
1.0
148
0.0
149
0.0
100
AcDbLayout
  1
Model
 70
     1
 71
     0
 10
0.0
 20
0.0
 11
12.0
 21
9.0
 12
0.0
 22
0.0
 32
0.0
 14
1.000000000000000E+20
 24
1.000000000000000E+20
 34
1.000000000000000E+20
 15
-1.000000000000000E+20
 25
-1.000000000000000E+20
 35
-1.000000000000000E+20
146
0.0
 13
0.0
 23
0.0
 33
0.0
 16
1.0
 26
0.0
 36
0.0
 17
0.0
 27
1.0
 37
0.0
 76
     0
330
1F
331
29
  0
MATERIAL
  5
3D
102
{ACAD_REACTORS
330
3B
102
}
330
3B
100
AcDbMaterial
  1
ByBlock
 72
     1
 94
      127
  0
MATERIAL
  5
3C
102
{ACAD_REACTORS
330
3B
102
}
330
3B
100
AcDbMaterial
  1
ByLayer
 72
     1
 94
      127
  0
MATERIAL
  5
3E
102
{ACAD_REACTORS
330
3B
102
}
330
3B
100
AcDbMaterial
  1
Global
 72
     1
 94
      127
  0
MLINESTYLE
  5
18
102
{ACAD_REACTORS
330
17
102
}
330
17
100
AcDbMlineStyle
  2
Standard
 70
     0
  3

 62
   256
 51
90.0
 52
90.0
 71
     2
 49
0.5
 62
   256
  6
BYLAYER
 49
-0.5
 62
   256
  6
BYLAYER
  0
ACDBPLACEHOLDER
  5
F
102
{ACAD_REACTORS
330
E
102
}
330
E
  0
VISUALSTYLE
  5
2F
102
{ACAD_REACTORS
330
2A
102
}
330
2A
100
AcDbVisualStyle
  2
2dWireframe
 70
     4
177
     2
291
     0
 71
     0
176
     1
 72
     2
176
     1
 73
     0
176
     1
 90
        0
176
     1
 40
-0.6
176
     1
 41
-30.0
176
     1
 62
     5
 63
     7
421
 16777215
176
     1
 74
     1
176
     1
 91
        4
176
     1
 64
     7
176
     1
 65
   257
176
     1
 75
     1
176
     1
175
     1
176
     1
 42
1.0
176
     1
 92
        0
176
     1
 66
   257
176
     1
 43
1.0
176
     1
 76
     1
176
     1
 77
     6
176
     1
 78
     2
176
     1
 67
     7
176
     1
 79
     5
176
     1
170
     0
176
     1
171
     0
176
     1
290
     0
176
     1
 93
        1
176
     1
 44
0.0
176
     1
173
     0
176
     1
  0
VISUALSTYLE
  5
31
102
{ACAD_REACTORS
330
2A
102
}
330
2A
100
AcDbVisualStyle
  2
3D Hidden
 70
     6
177
     2
291
     0
 71
     1
176
     1
 72
     2
176
     1
 73
     2
176
     1
 90
        0
176
     1
 40
-0.6
176
     1
 41
-30.0
176
     1
 62
     5
 63
     7
421
 16777215
176
     1
 74
     2
176
     1
 91
        2
176
     1
 64
     7
176
     1
 65
   257
176
     1
 75
     2
176
     1
175
     1
176
     1
 42
40.0
176
     1
 92
        0
176
     1
 66
   257
176
     1
 43
1.0
176
     1
 76
     1
176
     1
 77
     6
176
     1
 78
     2
176
     1
 67
     7
176
     1
 79
     3
176
     1
170
     0
176
     1
171
     0
176
     1
290
     0
176
     1
 93
        1
176
     1
 44
0.0
176
     1
173
     0
176
     1
  0
VISUALSTYLE
  5
30
102
{ACAD_REACTORS
330
2A
102
}
330
2A
100
AcDbVisualStyle
  2
3dWireframe
 70
     5
177
     2
291
     0
 71
     0
176
     1
 72
     2
176
     1
 73
     0
176
     1
 90
        0
176
     1
 40
-0.6
176
     1
 41
-30.0
176
     1
 62
     5
 63
     7
421
 16777215
176
     1
 74
     1
176
     1
 91
        4
176
     1
 64
     7
176
     1
 65
   257
176
     1
 75
     1
176
     1
175
     1
176
     1
 42
1.0
176
     1
 92
        0
176
     1
 66
   257
176
     1
 43
1.0
176
     1
 76
     1
176
     1
 77
     6
176
     1
 78
     2
176
     1
 67
     7
176
     1
 79
     5
176
     1
170
     0
176
     1
171
     0
176
     1
290
     0
176
     1
 93
        1
176
     1
 44
0.0
176
     1
173
     0
176
     1
  0
VISUALSTYLE
  5
32
102
{ACAD_REACTORS
330
2A
102
}
330
2A
100
AcDbVisualStyle
  2
Basic
 70
     7
177
     2
291
     1
 71
     1
176
     1
 72
     0
176
     1
 73
     1
176
     1
 90
        0
176
     1
 40
-0.6
176
     1
 41
-30.0
176
     1
 62
     5
 63
     7
421
 16777215
176
     1
 74
     0
176
     1
 91
        4
176
     1
 64
     7
176
     1
 65
   257
176
     1
 75
     1
176
     1
175
     1
176
     1
 42
1.0
176
     1
 92
        8
176
     1
 66
     7
176
     1
 43
1.0
176
     1
 76
     1
176
     1
 77
     6
176
     1
 78
     2
176
     1
 67
     7
176
     1
 79
     5
176
     1
170
     0
176
     1
171
     0
176
     1
290
     0
176
     1
 93
        1
176
     1
 44
0.0
176
     1
173
     0
176
     1
  0
VISUALSTYLE
  5
36
102
{ACAD_REACTORS
330
2A
102
}
330
2A
100
AcDbVisualStyle
  2
Brighten
 70
    12
177
     2
291
     1
 71
     2
176
     1
 72
     2
176
     1
 73
     0
176
     1
 90
        0
176
     1
 40
-0.6
176
     1
 41
-30.0
176
     1
 62
     5
 63
     7
421
 16777215
176
     1
 74
     1
176
     1
 91
        4
176
     1
 64
     7
176
     1
 65
   257
176
     1
 75
     1
176
     1
175
     1
176
     1
 42
1.0
176
     1
 92
        8
176
     1
 66
     7
176
     1
 43
1.0
176
     1
 76
     1
176
     1
 77
     6
176
     1
 78
     2
176
     1
 67
     7
176
     1
 79
     5
176
     1
170
     0
176
     1
171
     0
176
     1
290
     0
176
     1
 93
        1
176
     1
 44
50.0
176
     1
173
     0
176
     1
  0
VISUALSTYLE
  5
3A
102
{ACAD_REACTORS
330
2A
102
}
330
2A
100
AcDbVisualStyle
  2
ColorChange
 70
    16
177
     2
291
     1
 71
     2
176
     1
 72
     2
176
     1
 73
     3
176
     1
 90
        0
176
     1
 40
-0.6
176
     1
 41
-30.0
176
     1
 62
     5
 63
     8
421
  8421504
176
     1
 74
     1
176
     1
 91
        4
176
     1
 64
     7
176
     1
 65
   257
176
     1
 75
     1
176
     1
175
     1
176
     1
 42
1.0
176
     1
 92
        8
176
     1
 66
     8
424
  8421504
176
     1
 43
1.0
176
     1
 76
     1
176
     1
 77
     6
176
     1
 78
     2
176
     1
 67
     7
176
     1
 79
     5
176
     1
170
     0
176
     1
171
     0
176
     1
290
     0
176
     1
 93
        1
176
     1
 44
0.0
176
     1
173
     0
176
     1
  0
VISUALSTYLE
  5
34
102
{ACAD_REACTORS
330
2A
102
}
330
2A
100
AcDbVisualStyle
  2
Conceptual
 70
     9
177
     2
291
     0
 71
     3
176
     1
 72
     2
176
     1
 73
     0
176
     1
 90
        0
176
     1
 40
-0.6
176
     1
 41
-30.0
176
     1
 62
     5
 63
     7
421
 16777215
176
     1
 74
     2
176
     1
 91
        2
176
     1
 64
     7
176
     1
 65
   257
176
     1
 75
     1
176
     1
175
     1
176
     1
 42
40.0
176
     1
 92
        8
176
     1
 66
     7
176
     1
 43
1.0
176
     1
 76
     1
176
     1
 77
     6
176
     1
 78
     2
176
     1
 67
     7
176
     1
 79
     3
176
     1
170
     0
176
     1
171
     0
176
     1
290
     0
176
     1
 93
        1
176
     1
 44
0.0
176
     1
173
     0
176
     1
  0
VISUALSTYLE
  5
35
102
{ACAD_REACTORS
330
2A
102
}
330
2A
100
AcDbVisualStyle
  2
Dim
 70
    11
177
     2
291
     1
 71
     2
176
     1
 72
     2
176
     1
 73
     0
176
     1
 90
        0
176
     1
 40
-0.6
176
     1
 41
-30.0
176
     1
 62
     5
 63
     7
421
 16777215
176
     1
 74
     1
176
     1
 91
        4
176
     1
 64
     7
176
     1
 65
   257
176
     1
 75
     1
176
     1
175
     1
176
     1
 42
1.0
176
     1
 92
        8
176
     1
 66
     7
176
     1
 43
1.0
176
     1
 76
     1
176
     1
 77
     6
176
     1
 78
     2
176
     1
 67
     7
176
     1
 79
     5
176
     1
170
     0
176
     1
171
     0
176
     1
290
     0
176
     1
 93
        1
176
     1
 44
-50.0
176
     1
173
     0
176
     1
  0
VISUALSTYLE
  5
39
102
{ACAD_REACTORS
330
2A
102
}
330
2A
100
AcDbVisualStyle
  2
Facepattern
 70
    15
177
     2
291
     1
 71
     2
176
     1
 72
     2
176
     1
 73
     0
176
     1
 90
        0
176
     1
 40
-0.6
176
     1
 41
-30.0
176
     1
 62
     5
 63
     7
421
 16777215
176
     1
 74
     1
176
     1
 91
        4
176
     1
 64
     7
176
     1
 65
   257
176
     1
 75
     1
176
     1
175
     1
176
     1
 42
1.0
176
     1
 92
        8
176
     1
 66
     7
176
     1
 43
1.0
176
     1
 76
     1
176
     1
 77
     6
176
     1
 78
     2
176
     1
 67
     7
176
     1
 79
     5
176
     1
170
     0
176
     1
171
     0
176
     1
290
     0
176
     1
 93
        1
176
     1
 44
0.0
176
     1
173
     0
176
     1
  0
VISUALSTYLE
  5
2B
102
{ACAD_REACTORS
330
2A
102
}
330
2A
100
AcDbVisualStyle
  2
Flat
 70
     0
177
     2
291
     1
 71
     2
176
     1
 72
     1
176
     1
 73
     1
176
     1
 90
        2
176
     1
 40
-0.6
176
     1
 41
30.0
176
     1
 62
     5
 63
     7
421
 16777215
176
     1
 74
     0
176
     1
 91
        4
176
     1
 64
     7
176
     1
 65
   257
176
     1
 75
     1
176
     1
175
     1
176
     1
 42
1.0
176
     1
 92
        8
176
     1
 66
     7
176
     1
 43
1.0
176
     1
 76
     1
176
     1
 77
     6
176
     1
 78
     2
176
     1
 67
     7
176
     1
 79
     5
176
     1
170
     0
176
     1
171
     0
176
     1
290
     0
176
     1
 93
       13
176
     1
 44
0.0
176
     1
173
     0
176
     1
  0
VISUALSTYLE
  5
2C
102
{ACAD_REACTORS
330
2A
102
}
330
2A
100
AcDbVisualStyle
  2
FlatWithEdges
 70
     1
177
     2
291
     1
 71
     2
176
     1
 72
     1
176
     1
 73
     1
176
     1
 90
        2
176
     1
 40
-0.6
176
     1
 41
30.0
176
     1
 62
     5
 63
     7
421
 16777215
176
     1
 74
     1
176
     1
 91
        4
176
     1
 64
     7
176
     1
 65
   257
176
     1
 75
     1
176
     1
175
     1
176
     1
 42
1.0
176
     1
 92
        0
176
     1
 66
   257
176
     1
 43
1.0
176
     1
 76
     1
176
     1
 77
     6
176
     1
 78
     2
176
     1
 67
     7
176
     1
 79
     5
176
     1
170
     0
176
     1
171
     0
176
     1
290
     0
176
     1
 93
       13
176
     1
 44
0.0
176
     1
173
     0
176
     1
  0
VISUALSTYLE
  5
2D
102
{ACAD_REACTORS
330
2A
102
}
330
2A
100
AcDbVisualStyle
  2
Gouraud
 70
     2
177
     2
291
     1
 71
     2
176
     1
 72
     2
176
     1
 73
     1
176
     1
 90
        2
176
     1
 40
-0.6
176
     1
 41
30.0
176
     1
 62
     5
 63
     7
421
 16777215
176
     1
 74
     0
176
     1
 91
        4
176
     1
 64
     7
176
     1
 65
   257
176
     1
 75
     1
176
     1
175
     1
176
     1
 42
1.0
176
     1
 92
        0
176
     1
 66
     7
176
     1
 43
1.0
176
     1
 76
     1
176
     1
 77
     6
176
     1
 78
     2
176
     1
 67
     7
176
     1
 79
     5
176
     1
170
     0
176
     1
171
     0
176
     1
290
     0
176
     1
 93
       13
176
     1
 44
0.0
176
     1
173
     0
176
     1
  0
VISUALSTYLE
  5
2E
102
{ACAD_REACTORS
330
2A
102
}
330
2A
100
AcDbVisualStyle
  2
GouraudWithEdges
 70
     3
177
     2
291
     1
 71
     2
176
     1
 72
     2
176
     1
 73
     1
176
     1
 90
        2
176
     1
 40
-0.6
176
     1
 41
30.0
176
     1
 62
     5
 63
     7
421
 16777215
176
     1
 74
     1
176
     1
 91
        4
176
     1
 64
     7
176
     1
 65
   257
176
     1
 75
     1
176
     1
175
     1
176
     1
 42
1.0
176
     1
 92
        0
176
     1
 66
   257
176
     1
 43
1.0
176
     1
 76
     1
176
     1
 77
     6
176
     1
 78
     2
176
     1
 67
     7
176
     1
 79
     5
176
     1
170
     0
176
     1
171
     0
176
     1
290
     0
176
     1
 93
       13
176
     1
 44
0.0
176
     1
173
     0
176
     1
  0
VISUALSTYLE
  5
38
102
{ACAD_REACTORS
330
2A
102
}
330
2A
100
AcDbVisualStyle
  2
Linepattern
 70
    14
177
     2
291
     1
 71
     2
176
     1
 72
     2
176
     1
 73
     0
176
     1
 90
        0
176
     1
 40
-0.6
176
     1
 41
-30.0
176
     1
 62
     5
 63
     7
421
 16777215
176
     1
 74
     1
176
     1
 91
        4
176
     1
 64
     7
176
     1
 65
   257
176
     1
 75
     7
176
     1
175
     7
176
     1
 42
1.0
176
     1
 92
        8
176
     1
 66
     7
176
     1
 43
1.0
176
     1
 76
     1
176
     1
 77
     6
176
     1
 78
     2
176
     1
 67
     7
176
     1
 79
     5
176
     1
170
     0
176
     1
171
     0
176
     1
290
     0
176
     1
 93
        1
176
     1
 44
0.0
176
     1
173
     0
176
     1
  0
VISUALSTYLE
  5
33
102
{ACAD_REACTORS
330
2A
102
}
330
2A
100
AcDbVisualStyle
  2
Realistic
 70
     8
177
     2
291
     0
 71
     2
176
     1
 72
     2
176
     1
 73
     0
176
     1
 90
        0
176
     1
 40
-0.6
176
     1
 41
-30.0
176
     1
 62
     5
 63
     7
421
 16777215
176
     1
 74
     1
176
     1
 91
        0
176
     1
 64
     7
176
     1
 65
   257
176
     1
 75
     1
176
     1
175
     1
176
     1
 42
1.0
176
     1
 92
        8
176
     1
 66
     8
424
  7895160
176
     1
 43
1.0
176
     1
 76
     1
176
     1
 77
     6
176
     1
 78
     2
176
     1
 67
     7
176
     1
 79
     5
176
     1
170
     0
176
     1
171
     0
176
     1
290
     0
176
     1
 93
       13
176
     1
 44
0.0
176
     1
173
     0
176
     1
  0
VISUALSTYLE
  5
37
102
{ACAD_REACTORS
330
2A
102
}
330
2A
100
AcDbVisualStyle
  2
Thicken
 70
    13
177
     2
291
     1
 71
     2
176
     1
 72
     2
176
     1
 73
     0
176
     1
 90
        0
176
     1
 40
-0.6
176
     1
 41
-30.0
176
     1
 62
     5
 63
     7
421
 16777215
176
     1
 74
     1
176
     1
 91
        4
176
     1
 64
     7
176
     1
 65
   257
176
     1
 75
     1
176
     1
175
     1
176
     1
 42
1.0
176
     1
 92
       12
176
     1
 66
     7
176
     1
 43
1.0
176
     1
 76
     1
176
     1
 77
     6
176
     1
 78
     2
176
     1
 67
     7
176
     1
 79
     5
176
     1
170
     0
176
     1
171
     0
176
     1
290
     0
176
     1
 93
        1
176
     1
 44
0.0
176
     1
173
     0
176
     1
  0
ENDSEC
  0
EOF
